Nothing else matters interlude solo
Metallica
tabbed by caleb ([email protected])

Ive submitted this before, but i had to do it again. i left out how much to 
bend the steps up, and a few pull offs and things. To the cunt who reckons 
the last one i did was completely wrong, im gonna say tune up your guitar 
properly then tell me what wrong with it. Ive studied the song and slowed it 
down. Im almost certain its right. Bare in mind it is NOT the whole interlude, 
but merely the little solo thing at the end of it.

    S	      S       S    B       R    V
e------------------------------------------------
B------------------------------------------------
G--------12-12/14---12/14--14^(15)-14------------
D-12/14---------------------------------17~~~----
A------------------------------------------------
E------------------------------------------------

   B(W) B(W)  B(W)  P        S
e------------------------------------------
B-15----15----15---------------------------
G-14^---14^---14^----------------12--------
D-----------------17p14----12/14----14-----
A------------------------------------------
E------------------------------------------


Текст, аккорды и табулатура для песни "Nothing Else Matters (solo ver 4)", исполняет "Metallica".
Используемые в песне аккорды можно найти в разделе Как брать аккорды. Аккорды для шестиструнной гитары. Другие песни можно найти на нашем сайте, воспользовавшись алфавитным указателем вверху страницы.


 
Ошибка в тексте? Выделите ошибку и нажмите Ctrl+Enter