kirk hammett uses a slide for this solo
and the tuning is half a step down


|--------------------------------------------------------------------
|--------------------------------------------------------------------
|--------------------------------------------------------------------
|--------------------------0---0-----0---0---0-----------------------
|--0---0-----0---0---0-----------------------------------------------
|------------------------------------------------0---0-----0---0---0-

|-----------------------|---------------------------------------------
|-----------------------|---------------------------------------------
|-----------------------|---------------------------------------------
|-----------------------|-/9~~~~9-9~~~(9)8/9~~~~(9)4/12~~(12)/11-11-
|-----------------------|---------------------------------------------
|--12-0------(0)-------|---------------------------------------------
                              
|---------------------------------|-----------------------------------
|---------------------------------|-----------------------------------
|---------------------------------|-----------------------------------
|--(11)9-9---(9)8-8/9---(9)/314|/9----9-9---(9)8/9----(9)4/12----
|---------------------------------|-----------------------------------
|---------------------------------|-----------------------------------

                             * the 31st fret is beyond the fret board
                             it's about between the two humbuckers on
                             his guitar.

|---------------------------------------------------------------------
|---------------------------------------------------------------------
|---------------------------------------------------------------------
|(12)/11-11---(11)9-9---(9)8-8/9~~~then slowly go up the fret board-
|---------------------------------------------------------------------
|---------------------------------------------------------------------

|--------------------|------------------------------------------------
|--------------------|------------------------------------------------
|--------------------|------------------------------------------------
|-with the slide-----|-/31------------------------------------------
|--------------------|------------------------------------------------
|--------------------|--------0---(0)---(0)---------------(0)---------

|-------------------------------|
|-------------------------------|
|------9/13-7/11-5/9-3/7~~~~~~~~|
|------9/13-7/11-5/9-3/7~~~~~~~~|then the song fuel
|-------------------------------|
|-24---------------------------|



please rate this, i did my best on tabing it, any corrections, opions, email me


Текст, аккорды и табулатура для песни "Kirk Hammet Slide Solo On S&m", исполняет "Metallica".
Используемые в песне аккорды можно найти в разделе Как брать аккорды. Аккорды для шестиструнной гитары. Другие песни можно найти на нашем сайте, воспользовавшись алфавитным указателем вверху страницы.


 
Ошибка в тексте? Выделите ошибку и нажмите Ctrl+Enter