Tune down 1/2 step:
Very fast Rock = 231
                                                 Gtr.1 
 Intro                                           P.M. 
  N.C.   (Drums)                                 trem.pick.............
-----------|
-----------|
-----------|
-----------|
-----------||--12------------------|
-----------||--///-----------------|

                                                                          
-----------|
-----------|
-----------|
-----------|
|--12-----------------||--10-----------------||--7------------------|
|--///-----------------||--///-----------------||--///-----------------|

  Gtr.3
  N.C.                                                    C5 
  Play 2nd time only 
-------------------||----------|
|*-----------------------------||----------|
-------------------||----------|
|*-----------------------------||----------|
-------------------||----------|
-------------------||----------|
|
| Gtr.1
| P.M. ..........................................|
-------------------||----------|
|*-----------------------------||----------|
---------------5---||----------|
|*-------------------------5---||----------|
|---0--0--0--0--0--0--0--0-||-0--0--0--0--0--0--0--3---||----------|
-------------------||----------|

   Play 2nd time only 
   Harm. .........|         N.C.                                      D5                  
-------------|
7------------|
|------7---------5-------|
|-7----------------------|
-------------|
-------------|
|
|
|                             P.M. .................................|
-------------|
-------------|
--(5)----7--|
--(3)----7--|
--(3)--||-0--0--0--0--0--0--0--0-||-0--0--0--0--0--0--0--5--|
-------------|

                      _______________________   ___________________________
                     |1.                     | |2.
                                                         2
                      Harm. ...............|             )
                                                        /            
--------|-----7-------||------20-----------------|
--------|7---------7--||----x--------------------|
--------||------7-----------------||--x-----------17--(17)--|
--------||-7-------------------------|
-------------|
-------------|
|
|
|
-------------|
-------------|
-------------|
--------|-----7------|--------7----|
--------|-----7------|--------7----|
-------------|
                                 ___________________________       
  Gtr.1                         |1.2.3.                     |          
  N.C.                                         G5       A5                                
    P.M.     P.M.     P.M.                                       
-------------------------|
|*----------------------------------*|
|---------7--------5----------|----7--------9----|
|*----------------------------||---7p5---------5--------7---*|
|---0--0-----0--0-----0--0----||----------0------------------|
-------------------------|


  _____________________ 
 |4.                   | 
   A5 
   w/Fill 1
------------|
|--10------10------10--|
|--9-------9--------9--|
|--7-------7--------7--|
------------|
------------|



Fill 1 (gtr.3)
       Full  Full        Full
        )     )```       )~~~~~~~~~
|----17/---17/----------17---||--(17)------------|
|----20----20------------20---||--(20)------------|
------------------|--------|
------------------|--------|
------------------|--------|
------------------|--------|


Rhy.Fig.1(Gtrs.1&2)
   N.C.
   P.M. ..|
-----------------------------|
|*---------------------------------------|
7p5-------5-----------||--7p5-------7---------9------|
|*----------7p5-------5-----------||--7p5-------5---------7------|
|---0---0---------0----------0----||--------0--------------------|
-----------------------------|
                                     ____________________________
   N.C.                             |1.                          |
   P.M.                                           (end Rhy.Fig.1)
-----------------------------|
----------------------------*|
7p5-------5-----------||--7p5-------5---------5------|
7p5-------5-----------||--7p5-------5---------5-----*|
|---0---0---------0----------0----||--------0---3---------3------|
-----------------------------|
  ____________________________
 |2.
              C5                 F5                      
------------------|----------|
------------------|----------|
|---7p5-------5-----------5-/-||-10------------------|
|---7p5-------5-----------5-/-||-10------------------|
|---------0---3-----------3-/-||-8-------------------|
------------------|----------|

   G5
---------------|
---------------|
|--12------12------12------|
|--12------12------12------|
|--10------10------10------|
---------------|


 1st,3rd,5th Verses
 w/Rhy.Fig.1(1 3/4 times)
 3rd time w/Fill 3
  
 N.C.                              G5      A5     N.C.
--------------|--------|
 1.Sound of gunfire comes thrught the night ;  killing andhatred,it´s a

          C5             N.C.                        G5         A5                      
----------|--------|
 terible sight.     Reports come in, there´s a   heavy  attack;


   Fill 3 (Gtr.3)
            ~~~~~~~~~~~~~~~  
-------------------|-----|
|----13------------------------|-----|
|---------14------------(14)--||-x--------------|
-------------------|-----|
-------------------|-----|
-------------------|-----|

                         3rd time w/Fill 4
   N.C.                          C5          B5
 ---------------------|
   message seen, we´re   moving back.

                                    Rhy.Fill 1(Gtrs.1&2)......|
                                           P.M.    
---------------------------------|
---------------------------------|
----------------------||--7p5-------5-----------4--------|
----------------------||--7p5-------5-----------4--------|
----------------------||--------0---3-----------2--------|
---------------------------------|

  
 Gtrs.1&2
 Gtr.3
------------------------------------|
|---5p1------------------------------||--6p3p0--------------------------|
|----------3p1p0---------------------||----------5p3p0------------------|
------3--(3)p1p0---------|-------5p3p0p---------|
------------------3p1p0-------5p3p0-|
------------------------------------|

 Fill 4(Gtr.3)
    1&1/2  Full
     )     )´´
    /     /~~~~
|--20-||-20------17-20p17-||-17h2017-17-20p17-20p17-20p17-------17h20p17-|  
|-----|---------------17-20----------|
|-----|------------------------------|
|-----|------------------------------|
|-----|------------------------------|
|-----|------------------------------|
                                                                  Full           
                                                                  )´´´              
                                                                 / ~~~ 
|-17-17h20p17-17-17h20p17-------17h20p17--17-||-20p17-----------/--------|
--------------17h20--------------||--------20p17---20--------|
-------------------------------------|
-------------------------------------|
-------------------------------------|
-------------------------------------|
    1&1/2 
      ) 
     /                                                    ~~~~~~~~  
|---/---------------------------|----|
|--20------20----19-||-17------17h19p17------17---------|----|
--------||-----20------------20------20--19-||-17-----(17)--|
--------------------|----|
--------------------|----|
--------------------|----|


  1st time w/Fill 2
    
    5fr             5fr
    D       D5      D        D5
    P.M. ..|        P.M. .|                              ~~~~~~~~~~~~ 
---------------------------------|
--------5---6---5h6p5-------||---5---6---8---8-----------|
5---7-------------------7--------|
|---5h6h7------------------------------------|
---------------------------------|
---------------------------------|

  Bb5                                  C5
-----------------------------------|
|                                                            2. Prepa -                   
|                                            
|                                          Full      Full       Full                 
|                                           )         )          )
|--5-----7-----8-------7---5-----||---5----/--------5/---------5/------|
|--5---------------------------8-||-------8---------8----------8-------|
-----------------------------------|
-----------------------------------|
-----------------------------------|
-----------------------------------|

   2nd,4th,6th Verses
 w/Rhy.Fig.1(1 3/4 times)

  N.C.                                            G5         A5
------------------------------| 
|  rations   are   made   for   the     journey   back ;
|
|        Full   Full 
|        ____    )
|       /      /         (Gtr.3 out)
|-----5/------/--------------------------|
|-----8-----------------------------------|
------------------------------|
------------------------------|
------------------------------|
------------------------------|


  N.C.                            C5         N.C. 
-----------|---------|
 it´s  a  survival,  suplies  are packed.   No more nights in this e-

                                         w/Rhy.Fill 1  3rd time W/Fill 5
                                                       Gtrs. 1&2
         G5     A5     N.C.                         C5 B5   Bb5
--------|-------|----||---------|
  ternal hell; destination is simple: we  move  out.


         Chorus
  C5      D5                     Bb5(VII)      F5  E5   D5
          P.M.                                          P.M.
|------|---------|---|
                           You   left from the line._
         (Kill-ing  time.)_                           (Kill-ing time.)_

  Bb5(VI)         F5  G5 D5               Bb5(VI)  F5 E5  D5       To Coda
                        P.M.                             P.M. 
----------|---|--|------|
 Your turn to the kill.                 What´d ya say.                Ah,                      
                       (Kill-ing time.)_              (Kill-ing time.)_

  ________________________________________________________________________
 |1.                                                                      |
  Bb5(VI)  G5(III)
---------------|----------|
| killing time,___           ah.                                 3.And he
|
|                                                                    1&1/2
|                                                                      )
| Gtr.3                                                               /~~~
---------------|-----20---|
|--10/17-17-||-20p17-17-20p17----20p17----20p17----||-20p17----20p17-----*|
|-----18-------18-------18-||-------18------------|
---------------|---------*|
---------------|----------|
---------------|----------|

    Fill 5(Gtr.3)
                                           1&1/2  1&1/2
         _Full______________     Full_       )      ) 
        )                   |     )   |     /      /~~~~~~~~~~
|----17/--17--17--17--17--17---17/--17-||--20-----20---------(20)-|  
|----20---20--20--20--20--20---20---20-----|
-------------------------------|
-------------------------------|
-------------------------------|
-------------------------------|

   _______________________
  |2.                        (Drums)  
   Bb5(VI)  G5(III)
 -------------|-------|----|
   killing time._________

   Interlude 
   
    A5
 Gtr.3                                                           1/2
   P.M.|     P.M.|     P.M.|       P.M.|     P.M.|                )Full 
--------------------||-------/-)--|      
--------------------||--7----7/---|
|--------14--------17-------||-16--------15--------14--||--7----7----|
|--------14--------17--x--x-||-16--x-----15--------14--|-|
|--0--0--12--0--0--15--x--x-||-14--x--0--13--0--0--12--|-|
--------------------|-|

                       ~~~~                                        ~~~
---------------|--------|---------|
|---7p5--------------------|--------|---------|
|---7p5-------5---9p5------|--------|---5-----|
|---------7------------7---|--------||-----5--6--7-----7--|
---------------||--0---3--4--5--6---||--7-----------------|
---------------|--------|---------|

                                                                       
                                  A5(VII)                               
                                                                       
                                                                                    
-------------------------------|
----------------------------19-|
|-5---7p5----7h9p7---9-11p9h11-||-10h12p10----14-12----16-14/16----|
|---------7--------9-----------||----------12-------12-------------|
-------------------------------|
-------------------------------|

  Guitar solo 
  E5
   Full
    )~~~~~~~ 
|--/--------17-19-|
|-20--------------|
------|
------|
------|
------|

             G5(III)                     E5
                                       _Full________       _Full_____
                                      )             |     )          |
|--20--19--17--19--17h19p17------17--/-||-17--17--17---17/-17--17--17-|
-----------------20-----20-||-20--20--20---20--20--20--20-|
----------------------------------|
----------------------------------|
----------------------------------|
----------------------------------|

              D5                       E5                                           
      _Full_____       _Full_____         _Full_____       _Full_____       
     )          |     )          |       )          |     )          |      
|-17/-17--17--17---17/-17--17--17-||--17/-17--17--17---17/-17--17--17-|
|-20--20--20--20---20--20--20--20-||--20--20--20--20---20--20--20--20-|
----------------------------------|
----------------------------------|
----------------------------------|
----------------------------------|

               G5(III) 
       _Full_____       _Full_____
      )          |     )          |
|--17/-17--17--17---17/-17--17--17-|
|--20--20--20--20---20--20--20--20-|
-----------------------|
-----------------------|
-----------------------|
-----------------------|

   E5                          G5(III)  F#5    F5(I)

   1&1/2    _1&1/2_  1&1/2  _2_______
     )      )        )   )                     Full
    /      /        /   /                       )~~~~~~~
|--20-----20---------------|-17--||---/--------17--19-|
---------------|-----||--20---------------|
---------------|-----|--------|
---------------|-----|--------|
---------------|-----|--------|
---------------|-----|--------|

   G5(III)                                    A5(V)                           
                                                
                                               Full          
                                                )            
|--20---19---17---19p17--------17--------17----/--|
--------------20--------20--------20--|
--------------------------------------|
--------------------------------------|
--------------------------------------|
--------------------------------------|

           Full_    Full_
            )   |    )   |
|---17---17/--17--17/--17---x--17-|
|--------20---20--20---20---x-----|
----------------------|
----------------------|
----------------------|
----------------------|

                                       F5(I)        G5(III)D.S. al Coda

     Full_                              Full_______________________ 
      )   |                              )     ~~~~~~               
|--17/-17---20p17----------12-------||--/---------15-||--15------------|
|--20--20----------20--15-----15p13-||-15-----15-----||------15--15-----|
------------------------|----|------|
------------------------|----|------|
------------------------|----|------|
------------------------|----|------|

  Coda

    Bb5(VI)  G5(III)         A5(V)
--------------------------|
|  killing   time._______
|                         
|                           Gtr.3
|          
|                              Full                   Full
|                               )~~~~~~~~~             )
--------------||---/----------17----------/-------|
--------------||--20--------------20---17/---17---|
---------------19---------|
--------------------------|
--------------------------|
--------------------------|

                    G5(III)    A5(V) 
            Full 
             )        Full       Full    Full    Full
            /          )          )       )       )
|----------20-------15/---||---17/-----17/-----17/---||--(17)---|
|--20--17-----------18----||---20------20------20----||--(20)---|
-----------------||----------|
-----------------||----------|
-----------------||----------|
-----------------||----------|


             Addition Lyrics

3.And he knew what he needed to keep us alive, 
  No time for cowardice, kill and survive
  Like a killer kid with a switchblade knife,
  Nasty world, he´ll take your life.

4.The silens is over, they attack again,
  Killing and hatred drive me insane.
  Reports come in of a heavy attack,
  Message is seen, we´re moving back.(To Chorus)

5.Repeat 1st Verse 

6.Repeat 3st Verse   


 Tab symbols used:
        p  - pull off
        h  - hammer on        )              )
    / or  - slide           /  - bend      /   - bend and release
        x  - rake
       ~~  - vibrato
       /// - trem.pick


Текст, аккорды и табулатура для песни "Killing Time", исполняет "Metallica".
Используемые в песне аккорды можно найти в разделе Как брать аккорды. Аккорды для шестиструнной гитары. Другие песни можно найти на нашем сайте, воспользовавшись алфавитным указателем вверху страницы.


 
Ошибка в тексте? Выделите ошибку и нажмите Ctrl+Enter