Originally performed by Diamond Head
As performed by Metallica on Garage Inc.
 
Tune all guitars down 1/2 step
 
 
|-------------------------|-------------------------|-----------------------|
|-------------------------|-------------------------|-----------------------|
|-------------------------|-------------2--------0--|----------2----4--4----|
|--4--2----2-----------2--|----4--4--4--2--------0--|----------2----4--4----|
|-------4-----4--2--0--2--|----4--4--4--0--------2--|----------0----2--2----|
|----------------------0--|----2--2--2-----0--0-----|----0--0---------------|
                                  PM..     PM..          PM..

|-----------------------|-----------------------|------------------------|
|-----------------------|-----------------------|------------------------|
|-----------2--------2--|----------2----4--4----|------------2--------2--|
|--4--4--4--2--------2--|----------2----4--4----|--4--4--4---2--------2--|
|--4--4--4--0--------0--|----------0----2--2----|--4--4--4---0--------0--|
|--2--2--2-----0--0-----|----0--0---------------|--2--2--2------0--0-----|
               PM..          PM..                               PM..

|-----------------------|-----------------------|-----------------------|
|-----------------------|-----------------------|-----------------------|
|----------2----4--4----|-----------2--------2--|----------2----4--4----|
|----------2----4--4----|--4--4--4--2--------2--|----------2----4--4----|
|----------0----2--2----|--4--4--4--0--------0--|----------0----2--2----|
|----0--0---------------|--2--2--2-----0--0-----|----0--0---------------|
     PM..                              PM..          PM..

|-----------------|-----------------|-------------|-----------------------|
|-----------------|-----------------|-------------|-----------------------|
|--4----4------4--|-----------------|--4---9---4--|-----------------------|
|--4----4------4--|-----------------|--4---9---4--|--4--2---2----------2--|
|--2----2------2--|--------------2--|--2---7---2--|-------4---4--2--0--2--|
|-----------------|--------2--5-----|-------------|--------------------0--|

|-------------------|--------------------|-------------------|-----------------|
|-------------------|--------------------|-------------------|-----------------|
|----------------2--|--------------------|----------------2--|-----------------|
|----4--X--X--X--2--|-----2--X--X--X--2--|----4--X--X--X--2--|-----2--X-X-X-2--|
|----4--X--X--X--0--|-----2--X--X--X--2--|----4--X--X--X--0--|-----2--X-X-X-2--|
|----2--X--X--X-----|-----0--X--X--X--0--|----2--X--X--X-----|-----0--X-X-X-0--|

|-------------------|-----------------------|-------------------|
|-------------------|-----------------------|-------------------|
|----------------2--|-----------------------|----------------2--|
|----4--X--X--X--2--|----2--X---X--X--X--2--|----4--X--X--X--2--|
|----4--X--X--X--0--|----2--X---X--X--X--2--|----4--X--X--X--0--|
|----2--X--X--X-----|----0--X---X--X--X--0--|----2--X--X--X-----|

|----------------------------|-------------------|-------------------|
|----------------------------|-------------------|-------------------|
|--/4-b6-r4--2--/4-b6-r4-----|----------------2--|-------------------|
|-------------------------2--|----4--X--X--X--2--|----2--X--X--X--2--|
|-------------------------2--|----4--X--X--X--0--|----2--X--X--X--2--|
|-------------------------0--|----2--X--X--X-----|----0--X--X--X--0--|

|-----------------------|----------------------|----------------------|
|-----------------------|----------------------|----------------------|
|--------------------2--|----------------------|-------------------2--|
|----4--X---X--X--X--2--|----2--X---X--X----2--|----4--X---X--X----2--|
|----4--X---X--X--X--0--|----2--X---X--X----2--|----4--X---X--X----0--|
|----2--X---X--X--X-----|----0--X---X--X----0--|----2--X---X--X-------|

|-----------------------|-----------------------|--------------|
|-----------------------|-----------------------|--------------|
|-----------------------|--------------------2--|---------2----|
|----2--X---X--X--X--2--|----4--X---X--X--X--2--|----2----2----|
|----2--X---X--X--X--2--|----4--X---X--X--X--0--|----2----0----|
|----0--X---X--X--X--0--|----2--X---X--X--X-----|----0---------|

Guitar Solo (starts at 1:52 on the CD)
 
|----------------|--------------------|-----------------------|
|------------/5--|--------/5------/5--|--5--3--2-----2--------|
|----------------|--------------------|-----------4-----4-b6--|
|----------------|--------------------|-----------------------|
|----------------|--------------------|-----------------------|
|----------------|--------------------|-----------------------|

|-------------------------------------|--------------------------------------|
|-------------------------------------|--------------------------------------|
|-(6)--r4-p-2-----2--4--/4b6--r4-p-2--|--4-p-2-----2---------------------17--|
|--------------4----------------------|---------4-----4--(4)/-----14h16------|
|-------------------------------------|--------------------------------------|
|-------------------------------------|--------------------------------------|

|-------------------------|-------------------------|
|-------------------------|-------------------------|
|--16-~---------------17--|--16-~---------------17--|
|------------14-h-16------|------------14-h-16------|
|-------------------------|-------------------------|
|-------------------------|-------------------------|

|---------------------------------------------|--------------16---------------|
|---------------------------------------------|----------------------7h10--0--|
|--16--14------14--16b18-r16-p-14--16p14------|--14--16--14-------------------|
|----------16-----------------------------16--|-------------------------------|
|---------------------------------------------|-------------------------------|
|---------------------------------------------|-------------------------------|

|--10p7-----10p7-----9p6-----9p6-----|--8p5-----8p5-----7p4-----7p4-----|
|--------0--------0-------0-------0--|-------0-------0-------0-------0--|
|------------------------------------|----------------------------------|
|------------------------------------|----------------------------------|
|------------------------------------|----------------------------------|
|------------------------------------|----------------------------------|

|--22p19--0--22p19--0--21p18--0--21p18--0--|--20p17--0--20p17--0--19p16--0--19p16--0-|
|------------------------------------------|-----------------------------------------|
|------------------------------------------|-----------------------------------------|
|------------------------------------------|-----------------------------------------|
|------------------------------------------|-----------------------------------------|
|------------------------------------------|-----------------------------------------|

|--17p14---------17p14---------17p14---------17p14---------|
|---------17p14---------17p14---------17p14---------17p14--|
|----------------------------------------------------------|
|----------------------------------------------------------|
|----------------------------------------------------------|
|----------------------------------------------------------|

|--17p14---------17p14---------17p14---------17p14---------|
|---------17p14---------17p14---------17p14---------17p14--|
|----------------------------------------------------------|
|----------------------------------------------------------|
|----------------------------------------------------------|
|----------------------------------------------------------|

|--17p14--17p14---------17p14--17p14---------17p14------|
|----------------17p14----------------17p14---------17--|
|-------------------------------------------------------|
|-------------------------------------------------------|
|-------------------------------------------------------|
|-------------------------------------------------------|

|--14--------------------------------------|----------------------------------------|
|-----14--17--17b19--(19)-r17-p-14---------|---------------------------------17-b21-|
|----------------------------------16--14--|--16-b18-r16-p-14----14--16--14---------|
|------------------------------------------|------------------16--------------------|
|------------------------------------------|----------------------------------------|
|------------------------------------------|----------------------------------------|

         T
|------------------------------|--------------------|-------------------14--|
|--(21)--24--------------------|--16------14--------|---------------14--14--|
|------------16--14--------14--|--16------14--------|----------/16----------|
|--------------------16--------|--16------14----16--|----14-----------------|
|------------------------------|--------------------|-----------------------|
|------------------------------|--------------------|-----------------------|

|--(14)---------------|
|--(14)---------------|
|----------------------|
|----------------------|
|----------------------|
|----------------------|

i know some of the measures are too long but i think ull get it neways


Текст, аккорды и табулатура для песни "Its Electric", исполняет "Metallica".
Используемые в песне аккорды можно найти в разделе Как брать аккорды. Аккорды для шестиструнной гитары. Другие песни можно найти на нашем сайте, воспользовавшись алфавитным указателем вверху страницы.


 
Ошибка в тексте? Выделите ошибку и нажмите Ctrl+Enter