Artist: Metallica
Song: I Disappear

Tabed By: Wilkie


I have James' guitar reserved for the top
section, while Kirk bottom
section(s).  

Tuned 1/2 Step Down - Eb Bb Gb Db Ab Eb 

Intro

  Gtr I (James) Distortion with flanger 
|-----------------------|--------------------|
|-----------------------|--------------------|
|-----------------------|--------------------|
|-----------------------|--------------------|
|-----------------------|--------------------|
|2.9-2.9-2.9-2.9-2.9-2.9|2.9-2.9-2.9-2.9-2.9-|
|
| Gtr II (Kirk) Played with Meatball pedal
|-x------------x------x-|-----------x------x-|
|-x------------x------x-|-----------x------x-|
|-x-----9b-----x------x-|----9b-----x------x-|
|-x------------x------x-|-----------x------x-|
|-x------------x------x-|-----------x------x-|
|-0------------0------0-|-----------0------0-|
  
|--------------------|--------------------|
|--------------------|--------------------|
|--------------------|--------------------|
|--------------------|--------------------|
|--------------------|--------------------|
|2.9-2.9-2.9-2.9-2.9-|2.9-2.9-2.9-2.9-2.9-|
| 
|-----------x------x-|-----------x------x-|
|-----------x------x-|-----------x------x-|
|----9b-----x------x-|----9b-----x------x-|
|-----------x------x-|-----------x------x-|
|-----------x------x-|-----------x------x-|
|-----------0------0-|-----------0------0-|


|--------------------|--------------------|
|--------------------|--------------------|
|--------------------|--------------------|
|--------------------|--------------------|
|--------------------|------------------7-|
|2.9-2.9-2.9-2.9-2.9-|2.9-2.9-2.9-2.9---0-|
| 
|-----------x------x-|-----------x------x-|
|-----------x------x-|-----------x------x-|
|----9b-----x------x-|----9b-----x------x-|
|-----------x------x-|-----------x------x-|
|-----------x------x-|-----------x------x-|
|-----------0------0-|-----------0------0-|


 
|--------------------|--------------------| 
|--------------------|--------------------| 
|o-------------------|-------------------o| 
|o-------------------|-------------------o|     x3
|----7^-----7------7-|----7^-----7------7-|
|----7^-----5------0-|----7^-----5------0-|
|
|-----------x------x-|-----------x------x-|
|-----------x------x-|-----------x------x-|
|o---9b-----x------x-|----9b-----x------xo|
|o----------x------x-|-----------x------xo|
|-----------x------x-|-----------x------x-|
|-----------0------0-|-----------0------0-|
 
halt
|--------------------|--------------------| 
|--------------------|--------------------| 
|--------------------|--------------------| 
|--------------------|--------------------|
|----7^-----7------7-|----7^--------------|
|----7^-----5------0-|----7^--------------|
|
halt
|-----------x------x-|--------------------|
|-----------x------x-|--------------------|
|----9b-----x------x-|----9b--------------|
|-----------x------x-|--------------------|
|-----------x------x-|--------------------|
|-----------0------0-|--------------------|

|--------------------|--------------------| 
|--------------------|--------------------| 
|--------------------|--------------------| 
|--------------------|--------------------|
|----7----7^------7--|----7----7^------7--|
|----0----7^------5--|----0----7^------5--|
|
|--------------------|--------------------| 
|--------------------|--------------------| 
|--------------------|--------------------| 
|--------------------|--------------------|
|----7----7^------7--|----7----7^------7--|
|----0----7^------5--|----0----7^------5--|

|--------------------|------------------------| 
|--------------------|------------------------| 
|--------------------|------------------------| 
|--------------------|------------------------|
|----7----7^------7--|----7----7^------5--5---|
|----0----7^------5--|----0----7^------3--3---|
|
|--------------------|------------------------| 
|--------------------|------------------------| 
|--------------------|------------------------| 
|--------------------|------------------------|
|----7----7^------7--|----7----7^------5--5---|
|----0----7^------5--|----0----7^------3--3---|




|-----------------------------------------| 
|-----------------------------------------| 
|-----------------------------------------| 
|-----------------------------------------| 
|-2----2-2-2----2-2--2----2-2-2----5--5--| 
|-0----0-0-0----0-0--0----0-0-0----3--3--| 
| 
|-----------------------------------------| 
|-----------------------------------------| 
|-----------------------------------------|
|-----------------------------------------| 
|-----------------5h7--------------5--5--| 
|-0----0-0-0----0----0----0-0-0----3--3--|

Hey Hey Hey   Here I go now  Here I go into new days


|---------------------------------| 
|---------------------------------| 
|---------------------------------| 
|---------------------------------| 
|-2----2-2-2----2-2--2----2-2-2---| 
|-0----0-0-0----0-0--0----0-0-0---| 
| 
|---------------------------------| 
|---------------------------------| 
|---------------------------------|
|---------------------------------| 
|-----------------5h7-------------| 
|-0----0-0-0----0----0----0-0-0---|
Hey Hey Hey  Here I go now Here I go into 


  
|------------------|------------------------|
|------------------|------------------------|
|------------------|------------------------|
|-5--5--4--4--7--7-|-----------7---7b-------|
|------------------|---------------------2--|
|-3--3--2--2--5--5-|-0--2--0---5---5b----0--|
| 
|------------------|------------------------| 
|------------------|------------------------| 
|------------------|------------------------|
|-9--9--7--7--11-11|-7--9--7---11--12-------| 
|------------------|------------------------| 
|-7--7--5--5--9--9-|-5--7--5---9---10----0--|
new days    I'm pain, I'm hope, I'm suffer 



|-----------------------------------------| 
|-----------------------------------------| 
|-----------------------------------------| 
|-----------------------------------------| 
|-2----2-2-2----2-2--2----2-2-2----5--5--| 
|-0----0-0-0----0-0--0----0-0-0----3--3--| 
| 
|-----------------------------------------| 
|-----------------------------------------| 
|-----------------------------------------|
|-----------------------------------------| 
|-----------------5h7--------------5--5--| 
|-0----0-0-0----0----0----0-0-0----3--3--|
Yeah Hey Hey Hey Yeah Yeah. Here I go into new days

|--------------------|--------------------| 
|--------------------|--------------------| 
|--------------------|--------------------| 
|----2------9------2-|-(2)-------9------2-|
|----2------7------2-|-(2)-------7------2-|
|----0------0------0-|-(0)-------0------0-|
|
|-----------x------x-|-----------x------x-|
|-----------x------x-|-----------x------x-|
|----9b-----x------x-|----9b-----x------x-|
|-----------x------x-|-----------x------x-|
|-----------x------x-|-----------x------x-|
|-----------0------0-|-----------0------0-|


halt
|--------------------|--------------------| 
|--------------------|--------------------| 
|--------------------|--------------------| 
|-(2)-------9------2-|(2)-2---------------|
|-(2)-------7------2-|(2)-2---------------|
|-(0)-------0------0-|(0)-0---------------|
|                           
halt
|-----------x------x-|--------------------|
|-----------x------x-|--------------------|
|----9b-----x------x-|----9b--------------|
|-----------x------x-|--------------------|
|-----------x------x-|--------------------|
|-----------0------0-|--------------------|



|-----------------------------------------| 
|-----------------------------------------| 
|-----------------------------------------| 
|-----------------------------------------| 
|-2----2-2-2----2-2--2----2-2-2----5--5--| 
|-0----0-0-0----0-0--0----0-0-0----3--3--| 
| 
|-----------------------------------------| 
|-----------------------------------------| 
|-----------------------------------------|
|-----------------------------------------| 
|-----------------5h7--------------5--5--| 
|-0----0-0-0----0----0----0-0-0----3--3--|
Hey Hey Hey. Ain't no mercy. Ain't no mercy there for me

|---------------------------------| 
|---------------------------------| 
|---------------------------------| 
|---------------------------------| 
|-2----2-2-2----2-2--2----2-2-2---| 
|-0----0-0-0----0-0--0----0-0-0---| 
| 

|---------------------------------| 
|---------------------------------| 
|---------------------------------|
|---------------------------------| 
|-----------------5h7-------------| 
|-0----0-0-0----0----0----0-0-0---|
Hey Hey Hey. Ain't no mercy. Ain't no mercy


|------------------|------------------------|
|------------------|------------------------|
|------------------|------------------------|
|-5--5--4--4--7--7-|-----------7---7b-------|
|------------------|---------------------2--|
|-3--3--2--2--5--5-|-0--2--0---5---5b----0--|
| 
|------------------|------------------------| 
|------------------|------------------------| 
|------------------|------------------------|
|-9--9--7--7--11-11|-7--9--7---11--12-------| 
|------------------|------------------------| 
|-7--7--5--5--9--9-|-5--7--5---9---10----0--|
 there for me.    I'm pain, I'm hope, I'm suffer



|---------------------------------------------| 
|---------------------------------------------| 
|---------------------------------------------| 
|---------------------------------------------| 
|-2------2-2-2------2-2-2------2-2-2-----5--5-| 
|-0------0-0-0------0-0-0------0-0-0-----3--3-| 
| 
|---------------------------------------------| 
|---------------------------------------------|
|---12--------12--------12--------12------| 
|---12--------12--------12--------12------| 
|----------------------------------------5--5-|
|-0------0-0-0------0-0-0------0-0-0-----3--3-| 
Yeah, Yeah, Hey, Hey no mercy. Ain't no mercy there for me 


|------------------------------------------| 
|------------------------------------------| 
|------------------------------------------| 
|------------------------------------------|  
|-5----/7----------------------------------| 
|-2----------------------------------------| 
| 
|------------------------------------------| 
|---------------------------------------| 
|------------------------------------| 
|-------2-------------------------------| 
|-5-----2-------------------------------| 
|-2-----0----------------------------------| 
                    Do you bury me when I'm gone.  Do you teach me while I'm here


|--------------------------------| 
|--------------------------------| 
|---------------------x-x----x-x-| 
|---------------------x-x----x-x-| 
|---------------------x-x----x-x-| 
|---------------------x-x----x-x-| 
|
|--------------------------------| 
|-----------------------------| 
|--------------------------| 
|-----------------------------| 
|-----------------------------| 
|--------------------------------| 
Just as soon as I belong.Then it's time I disappear
                             HA!!!


|--------------------|--------------------| 
|--------------------|--------------------| 
|--------------------|--------------------| 
|--------------------|--------------------|
|----7----7^------7--|----7----7^------7--|
|----0----7^------5--|----0----7^------5--|
|
|--------------------|--------------------| 
|--------------------|--------------------| 
|--------------------|--------------------| 
|--------------------|--------------------|
|----7----7^------7--|----7----7^------7--|
|----0----7^------5--|----0----7^------5--|

|--------------------|------------------------| 
|--------------------|------------------------| 
|--------------------|------------------------| 
|--------------------|------------------------|
|----7----7^------7--|----7----7^------5--5--|
|----0----7^------5--|----0----7^------3--3--|
|
|--------------------|------------------------| 
|--------------------|------------------------| 
|--------------------|------------------------| 
|--------------------|------------------------|
|----7----7^------7--|----7----7^------5--5--|
|----0----7^------5--|----0----7^------3--3--|

|-----------------------------------------| 
|-----------------------------------------| 
|-----------------------------------------| 
|-----------------------------------------| 
|-2----2-2-2----2-2--2----2-2-2----5--5--| 
|-0----0-0-0----0-0--0----0-0-0----3--3--| 
| 
|-----------------------------------------| 
|-----------------------------------------| 
|-----------------------------------------|
|-----------------------------------------| 
|-----------------5h7--------------5--5--| 
|-0----0-0-0----0----0----0-0-0----3--3--|
Hey Hey Hey,And I went,And I went on down that road

|---------------------------------| 
|---------------------------------| 
|---------------------------------| 
|---------------------------------| 
|-2----2-2-2----2-2--2----2-2-2---| 
|-0----0-0-0----0-0--0----0-0-0---| 
| 
|---------------------------------| 
|---------------------------------| 
|---------------------------------|
|---------------------------------| 
|-----------------5h7-------------| 
|-0----0-0-0----0----0----0-0-0---|
Hey Hey Hey,And I went on,And I went on down 


  
|------------------|------------------------|
|------------------|------------------------|
|------------------|------------------------|
|-5--5--4--4--7--7-|-----------7---7b-------|
|------------------|---------------------2--|
|-3--3--2--2--5--5-|-0--2--0---5---5b----0--|
| 
|------------------|------------------------| 
|------------------|------------------------| 
|------------------|------------------------|
|-9--9--7--7--11-11|-7--9--7---11--12-------| 
|------------------|------------------------| 
|-7--7--5--5--9--9-|-5--7--5---9---10----0--|
that road.      I'm pain, I'm hope, I'm suffer

|---------------------------------------------| 
|---------------------------------------------| 
|---------------------------------------------| 
|---------------------------------------------| 
|-2------2-2-2------2-2-2------2-2-2-----5--5-| 
|-0------0-0-0------0-0-0------0-0-0-----3--3-| 
| 
|---------------------------------------------| 
|---------------------------------------------|
|---12--------12--------12--------12------| 
|---12--------12--------12--------12------| 
|----------------------------------------5--5-|
|-0------0-0-0------0-0-0------0-0-0-----3--3-| 
Hey Hey Hey Yeah And I went on, And I went on down that road

|-----------0----------------------------------------|
|-------------3--------------------------------------|
|---------------2-0----0------------0h2-2-2--2br0----|
|-----------------------------0----------------------|
|-5----/7--------------------------------------------|
|-2--------------------------------------------------|
| 
|----------------------------------------------------|
|-------------------------------------------------|
|----------------------------------------------|
|-------2-----------------------------------------|
|-5-----2-----------------------------------------|
|-2-----0--------------------------------------------|
                             Do you bury me when I'm gone, Do you teach me while 
|-0----------------------------------------| 
|---3--------------------------------------| 
|-----2-0----0-------0---------------------| 
|------------------0---0--0-2-2-2-0-2-2br--| 
|------------------------------------------| 
|------------------------------------------|
|
|------------------------------------------| 
|---------------------------------------| 
|------------------------------------| 
|---------------------------------------| 
|---------------------------------------| 
|------------------------------------------| 
I'm here,   Just as soon as I belong, Then it's time I disappear 


|-0----------------------------------------| 
|---3--------------------------------------| 
|-----2-0----0-------0---------------------| 
|------------------0---0--0-2-2-2-0-2-2br--| 
|------------------------------------------| 
|------------------------------------------|
|
|------------------------------------------| 
|---------------------------------------| 
|------------------------------------| 
|---------------------------------------| 
|---------------------------------------| 
|------------------------------------------| 
              Do you bury me when I'm gone. Do you teach me while I'm here
  
|-0----------------------------------------| 
|---3--------------------------------------| 
|-----2-0----0-------0---------------------| 
|------------------0---0--0-2-2-2-0-2-2br--| 
|------------------------------------------| 
|------------------------------------------|
| 
|------------------------------------------| 
|-8/9-9---8/9-9-9--8/9-9-9--8/9-9-x-1211--| 
|------------------------------------------| 
|-6/7-7---6/7-7-7--6/7-7-7--6/7-7-x-109---| 
|------------------------------------------|
|------------------------------------------|
|
|------------------------------------------| 
|---------------------------------------| 
|------------------------------------| 
|---------------------------------------| 
|---------------------------------------| 
|------------------------------------------| 
              Just as soon as I belong. Then it's time 
|-0----------------------------------------| 
|---3--------------------------------------| 
|-----2-0----0-------0---------------------| 
|------------------0---0--0-2-2-2-0-2-2br--| 
|------------------------------------------| 
|------------------------------------------|
  I disappear 
|-----------------------|--------------------|
|-----------------------|--------------------|
|-----------------------|--------------------|
|-2------------9------2-|-----------9------2-|
|-2------------7------2-|-----------7------2-|
|-0------------0------0-|-----------0------0-|
| 
|-x------------x------x-|-----------x------x-|
|-x------------x------x-|-----------x------x-|
|-x-----9b-----x------x-|----9b-----x------x-|
|-x------------x------x-|-----------x------x-|
|-x------------x------x-|-----------x------x-|
|-0------------0------0-|-----------0------0-|



|--------------------|----------------|
|--------------------|----------------|
|--------------------|----------------|
|-----------9------2-|----------------|
|-----------7------2-|---------x-12--|
|-----------0------0-|---------x-12--|
| 
|-----------x------x-|----------------|
|-----------x------x-|----------------|
|----9b-----x------x-|---9b-----------|
|-----------x------x-|----------------|
|-----------x------x-|----------------|
|-----------0------0-|----------------|

|----------------------------------| 
|----------------------------------| 
|o--------------------------------o|
|o--------------------------------o|
|-7-------7-------7--/7---7---7----| 
|-0-------0-------0--/5---5---0----|       x3
|
|----------------------------------|
|-------8-8-x-8-x-x----------------|
|o------7-7-x-7-x-x-----------12b~o|
|o------6-6-x-6-x-x------12h14----o|
|-------7-7-x-7-x-x---------------|
|-0---0--------------/14-----------|
           (I'm gone) 

|----------------------------------------------| 
|----------------------------------------------| 
|----------------------------------------------|
|----------------------------------------------|
|-7------------7-----------7----/7-----7-----7-| 
|-0------------0-----------0----/5-----5-----0-| 
|
|----------------------------------------------| 
|----------------------------------------------| 
|-14p12----14p12----14p12----14p12----14p12----| 
|-------14-------14-------14-------14-------14-| 
|----------------------------------------------| 
|----------------------------------------------|
(Oh yeah I'm gone)
|----------------------------------| 
|----------------------------------| 
|o--------------------------------o|
|o--------------------------------o|
|-7-------7-------7--/7---7---7----| 
|-0-------0-------0--/5---5---0----|       x3
|
|----------------------------------|
|-------8-8-x-8-x-x----------------|
|o------7-7-x-7-x-x-----------12b~o|
|o------6-6-x-6-x-x------12h14----o|
|-------7-7-x-7-x-x---------------|
|-0---0--------------/14-----------|
           (I'm gone)



|----------------------------------------------| 
|----------------------------------------------| 
|----------------------------------------------|
|----------------------------------------------|
|-7------------7-----------7----/7-----7-----7-| 
|-0------------0-----------0----/5-----5-----0-| 
|
|----------------------------------------------| 
|----------------------------------------------| 
|-14p12----14p12----14p12----14p12----14p12----| 
|-------14-------14-------14-------14-------14-| 
|----------------------------------------------| 
|----------------------------------------------|
(I'm gone I'm gone)

|----------------|---------------------| 
|----------------|---------------------| 
|o--------------o|---------------------|
|o--------------o|---------------------| 
|-2---------5-5--|--2---------5--5-----| 
|-0---3bp0--3-3--|--0---3bp0--3--3-----|
| 
|----------------|----------------------| 
|----------------|----------------------| 
|o--------------o|----------------------|
|o--------------o|----------------------| 
|-2---------5-5--|--2---------5--4--3---| 
|-0---3bp0--3-3--|--0---3bp0--3--2--1---|

|----------------|---------------------| 
|o--------------o|---------------------|
|o--------------o|---------------------| 
|-2---------5-5--|--2---------5--5-----| 
|-0---3bp0--3-3--|--0---3bp0--3--3-----|
| 
|----------------|----------------------| 
|----------------|----------------------| 
|o----9br-------o|------9br-------------|
|o--------------o|----------------------| 
|-----------5-5--|------------5--4--3---| 
|-0---------3-3--|--0---------3--2--1---| 

     PM...        PM...       PM....     PM..
|------------------------------------------------| 
|------------------------------------------------| 
|------------------------------------------------| 
|-----------------------4--5--------4--2---------| 
|-2---------4--5--------2--3--3-3-3-2--0-0-0-----| 
|-0--0-0-0--2--3--3-3-3----------------------3-2-|
|
|------------------------------------------------| 
|------------------------------------------------| 
|--6/9-9-9--8-8--9-9--8-8--9-9--8-8--9-9--8-8--9-|
|------------------------------------------------|
|--6/7-7-7--6-6--7-7--6-6--7-7--6-6--7-7--6-6--7-|
|------------------------------------------------|
Do you bury me when I'm gone. Do you teach me while I'm here 
 
  



   PM....       PM...       PM....    
|------------------------------------------------| 
|------------------------------------------------| 
|------------------------------------------7--9--| 
|-----------------------4--5--------4--7---------| 
|-2---------4--5--------2--3--3-3-3-2--5---5--7--| 
|-0--0-0-0--2--3--3-3-3--------------------------|
|
|------------------------------------------------| 
|------------------------------------------------| 
|--6/9-9-9--8-8--9-9--8-8--10-10-10-10-12-12-12--|
|------------------------------------------------|
|--6/7-7-7--6-6--7-7--6-6--10-10-10-10-12-12-12--|
|------------------------------------------------| 
       Just as soon as I belong. Then it's time I disappear 

          
|------------------------------------------------| 
|------------------------------------------------| 
|------------------------------------------------| 
|-----------------------4--5--------4--2---------| 
|-2---------4--5--------2--3--3-3-3-2--0-0-0-----| 
|-0--0-0-0--2--3--3-3-3----------------------3-2-|
|
|------------------------------------------------| 
|------------------------------------------------| 
|--6/9-9-9--8-8--9-9--8-8--9-9--8-8--9-9--8-8--9-|
|------------------------------------------------|
|--6/7-7-7--6-6--7-7--6-6--7-7--6-6--7-7--6-6--7-|
|------------------------------------------------|
Do you bury me when I'm gone. Do you teach me while I'm here 
     
|------------------------------------------------| 
|------------------------------------------------| 
|------------------------------------------7--9--| 
|-----------------------4--5--------4--7---------| 
|-2---------4--5--------2--3--3-3-3-2--5---5--7--| 
|-0--0-0-0--2--3--3-3-3--------------------------|
|
|------------------------------------------------| 
|------------------------------------------------| 
|--6/9-9-9--8-8--9-9--8-8--10-10-10-10-12-12-12--|
|------------------------------------------------|
|--6/7-7-7--6-6--7-7--6-6--10-10-10-10-12-12-12--|
|------------------------------------------------| 
        Just as soon as I belong. Then it's time I disappear
                               

|-----------------------|--------------------|
|-----------------------|--------------------|
|-------9^--------------|----9^--------------|
|-2-------------------2-|------------------2-|
|-2-----7^-----7------2-|----7^-----7------2-|
|-0------------5------0-|-----------5------0-|
|
|-x------------x------x-|-----------x------x-|
|-x------------x------x-|-----------x------x-|
|-x-----9b-----x------x-|----9b-----x------x-|
|-x------------x------x-|-----------x------x-|
|-x------------x------x-|-----------x------x-|
|-0------------0------0-|-----------0------0-|


                           Master tape is slowed to halt
|--------------------|-----------|
|--------------------|-----------|
|----9^--------------|----9^-----|
|------------------2-|-----------|
|----7^-----7------2-|----7^-----|
|-----------5------0-|-----------|
|                          Master tape is slowed to halt
|-----------x------x-|-----------|
|-----------x------x-|-----------|
|----9b-----x------x-|----9b-----|
|-----------x------x-|-----------|
|-----------x------x-|-----------|
|-----------0------0-|-----------|


Текст, аккорды и табулатура для песни "I Disappear", исполняет "Metallica".
Используемые в песне аккорды можно найти в разделе Как брать аккорды. Аккорды для шестиструнной гитары. Другие песни можно найти на нашем сайте, воспользовавшись алфавитным указателем вверху страницы.


Слушать онлайн I Disappear (In the Style of Metallica)


Ameritz - KaraokeI Disappear (In the Style of Metallica) на Яндекс.Музыке


 
Ошибка в тексте? Выделите ошибку и нажмите Ctrl+Enter