1a)

G-------------------------------------
D--2----------------2----------------2
A--2----------------2----------------2
E--0--0-0-0--0-0-0--0--0-0-0--0-0-0--0


1b)

G------------------------
D--5-------2----5-------2
A--5-------2----5-------2
E--3---4-5-0----3---4-5-0

1b comes after a few times and is heard under 1a


2)

G-----------------------------------------------------------
D---------------2-----------------------------2-------------
A--0-1---0-1----2--0-1---0-1-----0-1---0-1----2--0-1---0-1--
E------3-----3--0------3-----3-------3-----3--0------3-----3


3)

G---------------------------------
D---------------5----------------2
A--0-1---0-1----5---0-1---0-1----2
E------3-----3--3-------3-----3--0

No more

4)

G-----------------
D----------------2
A--1-1-1-1-1-0---2
E--------------3-0
..instead


Текст, аккорды и табулатура для песни "Holier Than Thou", исполняет "Metallica".
Используемые в песне аккорды можно найти в разделе Как брать аккорды. Аккорды для шестиструнной гитары. Другие песни можно найти на нашем сайте, воспользовавшись алфавитным указателем вверху страницы.


Слушать онлайн Holier Than Thou [In the Style of Metallica]


The Karaoke UniverseHolier Than Thou [In the Style of Metallica] на Яндекс.Музыке


 
Ошибка в тексте? Выделите ошибку и нажмите Ctrl+Enter