Fuel - Metallica - Reload
 Tabbed by Andrew Reasoner ([email protected])
 
 Gb-----------------------------------------------
 Db-----------------------------------------------
 Ab-----------------------------------------------
 Eb--3p0-0-3p0-0-3p0-3p0-0-3p0-0-3p0-3/5-5-5-53-3
 
 gb------------------------------
 Db--------7-7-7-5--------7-7-7-5
 Ab--0h5h7----------0h5h7--------
 Eb------------------------------
 
 verse     x2                        x2
 gb--------            -------------
 db--------            -------------
 ab--------            -------------
 Eb--0--3--            -0-----------
 
 
 Chorus riffs (all four)
 gb-----------------------------------------------------------------
 db-----------------------------------------------------------------
 Ab--5h7-----7p5-----5h7-----7p5-----5h7-----7p5-----5h7-----7p5----
 Eb------0-0-----0-0-----0-0-----0-0-----5-5-----5-5-----5-5-----5-5
 
 gb-----------------------------------------------------------------
 db-----------------------------------------------------------------
 Ab--5h7-----7p5-----5h7-----7p5-----5h7-----7p5-----5h7-----7p5----
 Eb------3-3-----3-3-----3-3-----3-3-----5-5-----5-5-----5-5-----5-5
 
 gb-----------------------------------------------------------------
 db-----------------------------------------------------------------
 Ab--5h7-----7p5-----5h7-----7p5-----5h7-----7p5-----5h7-----7p5----
 Eb------0-0-----0-0-----0-0-----0-0-----5-5-----5-5-----5-5-----5-5
 
 gb-----------------------------------------------------------------
 db-----------------------------------------------------------------
 Ab--5h7-5-5-7p5-5-5-5h7-5-5-7p5-5-5-7h9-7-7-9p7-7-7-7h9-7-7-9p7----
 Eb-----------------------------------------------------------------
  
 
 pre-solo
 gb------------------------------
 db------------------------------
 Ab--7-7--5----------7-7--5------
 Eb---------0-0-0-0---------0-0-3
 
 
 
 Gimme fuel
 Gimme fire
 Gimme that which I desire
 Oh
 
 Yea
 Turn on, I see red
 Adrenaline crash, crash my head
 Natural joker, paint me dead
 And I see red
 
 Running across through black and white
 War horse
 War head
 Fuck `em, man
 White knuckles tight
 Through black and white
 
 Oh, I burn
 Fuel is pumping engines
 Burning hard
 Loose and clean
 
 Oh, and I burn
 Turning my direction
 Quench my thirst with gasoline
 
 So gimme fuel
 Gimme fire
 Gimme that which I desire
 
 Hey
 
 Turn on beyond the bone
 Swallow future, spit out hope
 Burn your face upon the chrome
 
 Yeah, oh yeah
 
 Take the corner, going to crash
 Yeah
 Headlights
 Headlines
 Another joker, who lived too fast
 
 Yeah
 Lives way too fast, fast, fast, fast, fast
 Oh
 
 Oh, I burn
 Fuel is pumping engines
 Burning hard, loose and clean
 
 Oh, and I burn
 Turning my direction
 Quench my thirst with gasoline
 
 So gimme fuel
 Gimme fire
 Gimme that which I desire
 Oh yeah
 
 Oh
 Gimme fuel
 Gimme fire
 My desire
 
 Oh, I burn
 Fuel is pumping engines
 Burning hard, loose and clean
 
 And I burn,
 Turning my direction,
 Quench my thirst with gasoline
 
 Gimme fuel
 Gimme fire
 Gimme that which I desire
 Oh
 


Текст, аккорды и табулатура для песни "Fuel (btab)", исполняет "Metallica".
Используемые в песне аккорды можно найти в разделе Как брать аккорды. Аккорды для шестиструнной гитары. Другие песни можно найти на нашем сайте, воспользовавшись алфавитным указателем вверху страницы.


 
Ошибка в тексте? Выделите ошибку и нажмите Ctrl+Enter