Intro:
 
 G--------------------------------------|
 D--------------------------------------|
 A|-2-3-2-3-2-3-2-3---------------------------------|
 E------0---1---0---3-0---1---0---0-1-0-|
 
 G-------------|
 D-------------|
 A---2-3-2-3---|
 E|-1---0---3-0----------0-|
 
 
 Riff 1:
               1,2,3,                   4,
 G----------------|
 D------------3-2-|
 A|-2h33333333-2-0h2-|-2h33333333-3-2-----|
 E----------------|
 
 
 
 Verse (Dear Mother, Dear Father):
 
 G---------------------------------------|
 D---------------------------------------|
 A|---------0-----32-------------0---------5------3-|
 E|-2---3-------0------2---3---0----3-2-0------3-----|
 
 
 At the end of Verses, there are often little Bridge 
 bars. Examples follow.
 
 G|
 D|
 A|
 E|-xxx-x-xxx-|
 
 G|
 D|
 A|
 E|-000-0-000-|
 
 G|--------|
 D|--------|
 A|---5-7--|
 E|--------|
 



Текст, аккорды и табулатура для песни "Dyers Eve (btab)", исполняет "Metallica".
Используемые в песне аккорды можно найти в разделе Как брать аккорды. Аккорды для шестиструнной гитары. Другие песни можно найти на нашем сайте, воспользовавшись алфавитным указателем вверху страницы.


 
Ошибка в тексте? Выделите ошибку и нажмите Ctrl+Enter