Don`t Tread on Me
 ----- ----- -- --
 Metallica
 From the black album
 
 104 bmp
 (12/8)
 
 ||-------------------|-------|-------|-------------------|------------------|
 ||-------------------|---%---|---%---|-------------------|------------------|
 ||-------------------|-------|-------|-----------2--2----|-----------5--5---|
 ||-0-0-0-----0--0----|-------|-------|-0-0-0-------------|-3-3-3------------|
 
 (6/8)          (12/8)
 |----------|   |--------------------|-------------------|-------------------|
 |----------|   |--------------------|-------------------|-------------------|
 |-3-3-3----|   |-7------------------|-------------------|-------------------|
 |----------|   |-----0-------0--0---|-0--0------0--0----|-0-0-0-----0--0----|
 
 |-------------------|-------|-------|-------|-------------------------|
 |-------------------|---%---|---%---|---%---|-------------------------|
 |-------------------|-------|-------|-------|-------------------------|
 |-0-0-0-----0--0----|-------|-------|-------|-0-0-0----1-0---1-1/3--1-|
 
 Bass fig.1                                         (end Bass fig.1)
 |---------------------------------|--------------------------------|
 |---------------------------------|--------------------------------|
 |-------1/2--------------1/2------|-------1/2----------------------|
 |-0-0-0-------1--0-----0--------1-|-0-0-0-------1--0----1--1/3---1-|
 
 
 Play Bass fig.1 (3 times)
 
 
 1st, 2nd verses
 Bass fig.2 
 ||-------------------|------------------|----------------------|
 ||o------------------|------------------|----------------------|
 ||o------------------|------------------|----------------------|
 ||--0-0-0-----0--0---|-0-0-0-----1--1---|-2-2-2--1-2-3--3--2-3-|
 
          (end Bass fig.2)
 |-------------------------||
 |------------------------o||
 |--------------------5---o|| 
 |-4-4-4--3-4-5---6/7---7--||
 
 "Say don`t tread on me...|
 |--------------------------------------|--------------------------------||
 |--------------------------------------|--------------------------------||
 |--------------------------------------|--------------------------------||
 |-0--0-0-0--1--0--0--0--0-0-0--3--0--0-|-0--0-0-0--5--0--0--6-0-5-0-3-0-||
 
 Bass fig.3
 |------------------------|-------------------------|------------------------|
 |------------------------|-------------------------|------------------------|
 |------------------------|-------------------------|-5---5---5---5--5-5-5---|
 |-0--0-1-0-0-0---0-0-0-0-|-0---0-1-0-0-0--0-2-3---3|-------5---5----------5-|
 
            (end bass fig.3)
 |-------------------------|------------------------|------------------------|
 |-------------------------|------------------------|------------------------|
 |-------------------------|------------------------|------------------------|
 |-3---3-0-3--3/4---5---6-|-0--0-1-0-0-0---0-0-0-0-|-0--0-1-0-0-0-0-2-3--3--|
 
 |-------------------------|---------------------|---------------------------|
 |-------------------------|---------------------|---------------------------|
 |-5--5---5---5------5-5---|---------------------|---------------------------|
 |------5---5------5-----5-|-3---3-0-3-3-3--3--3-|-0-0-0-1-0-0-0-0-0-0-3-0-0-|
  ______________________
 |
 | 1. w/ Bass fig.1 (2 times)
 |
  ______________________
 |2.
 |-----------------------------|--------------||
 |-----------------------------|--------------||
 |-------------------1---------|--------------||
 |-3--3-3-3--3--3--3-----3--1--|--------10---||
 
 Guitar solo
 
 Play Bass fig.1 (4 times)
 
 |----------------------|-----------------|------------------|
 |----------------------|-----------------|------------------|
 |----------------------|-----------------|------------------|
 |-0-0-0--0-0-0---0-----|---------0-0-0---|-1---1------------|
 
 |-------------------|----------------------||
 |-------------------|----------------------||
 |-------------------|------------------5---||
 |-2-2-2-----3--3----|-4-4-4-----5--6/7---7-||
 
 ||--------------------------------------|-----------------------------------|
 ||--------------------------------------|-----------------------------------|
 ||--------------------------------------|-----------------------------------|
 ||-0--0-0-0--1--0--0--0--0-0-0--3--0--1-|-0--0-0-0--1-0--0--0--0-0-0--3-0-0-|
 
 |-----------------------------------|--------------------------------------|
 |-----------------------------------|--------------------------------------|
 |-----------------------------------|--------------------------------------|
 |-0--0-0-0--5--0--0--6-0--0--5-0--0-|-0--0-0-0--1--0--0--0--0-0-0--3--0--0-|
 
 |--------------------------------------||
 |--------------------------------------||
 |--------------------------------------||
 |-0--0-0-0--1--0--0--0--0-0-0--3--0--0-||
 
 
 Play Bass fig.3 and repeat for outro



Текст, аккорды и табулатура для песни "Don`t Tread On Me (btab)", исполняет "Metallica".
Используемые в песне аккорды можно найти в разделе Как брать аккорды. Аккорды для шестиструнной гитары. Другие песни можно найти на нашем сайте, воспользовавшись алфавитным указателем вверху страницы.


 
Ошибка в тексте? Выделите ошибку и нажмите Ctrl+Enter