"CURE"                    METALLICA-LOAD
 
 TRANSCRIBED BY: STEVE GORENBERG      FROM: keith rogers
                                      (i only converted it to ascii)
 
  DRUMS         GUITAR IN            1st VERSE
 |------------|--------------------|----------------------------|
 |------------|--------------------|----------------------------|
 |------------|--------------------|----------------------------|
 |------------|--------------------|----------------------------|
 
  BASS FILL 1                         END FILL 1
 |-------------------------------------------------|
 |-------------------------------------------------|
 |-------------------------------------------------|
 |-1--1--1--1--1--1--1--1--1--1--1--1--1------0--1-|
 
  PRE-CHORUS  (BASS FIG 1)
 |-----------------------------------------------------------------------
 |-----------------------------------------------------------------------
 |-----0--1---------------------1-------------------------------------1-1
 |-(1)-------0--1--0--0--0-0--0---3--0--1--0--0--1--1--1-1--1--1--1--1---
 
 ---------------------------------------------------------------------
 ---------------------------------------------------------------------
 -/8-8-8-8-8-----------0-1----------------1------------------0-1-----
 --------------0-1--(1)-----0-1-0-0--0-0-0---3-0-1-0-0-1--(1)-----0-1-
 
 ----------------------------------------------------------------------
 ----------------------------------------------------------------------
 -------------1--------------------------------------------------------
 -0--0--0-0--0--3-0-1-0-0-0--0-0-X--0-0-0-0--X--0--0-0-X--0-0-0-0-0--X-
 
                                  END FIG 1
 ----------------------------------------------|
 ----------------------------------------------|
 --------------------------------7-6-5---------|
 -0--0--0--X--0-0-0-0-0--X--0--0---------7-6-5-|
 
 |------------------------------------------------------------------|
 |------------------------------------------------------------------|
 |------------------------------------------------------------------|
 |--3-0-3---0-0-0-0-0-0-0-0-0-0-0-0-0-0-3--0-0-0-0--0-0-0-0-0-0-0-0-|
 
   BASS FIG 2              END FIG 2
 |-----------------------------------|
 |-----------------------------------|
 |-----------------------------------|
 |-0----3----0-0-0-0-0-0-0-0-0-0-0-0-|
 
    W/BASS FIG 2  3x`S
                         W/BASS FILL 1
    PRE-CHORUS W/FIG 1
 
 
    CHORUS (BASS FIG 3)
 |--------------------------------------------------------------------
 |--------------------------------------------------------------------
 |------------------7------7-6-5-----------------------7------7-6-5---
 |-3-0----0-0-0-0-0---0-/6-------7-6-5-3-0---0-0-0-0-0---0-/6---------
 
 -----------------------------------------------------------------------
 -----------------------------------------------------------------------
 ----------------------7------7------7----------7------7----------------
 -7-6-5--3-0---0-0-0-0-0-0-/6---6-5----6-5--5H6---6-5----6--5--3-0--0-0- 
          END FIG 3       GUITAR SOLO
 ---------------------|-------------------------------------------------
 ---------------------|-------------------------------------------------
 ---------------------|----7-------7------------------------------------
 ---0--0----0-0---0-0-|-0----6-5-----6-5--0-0-3---0-0-0-0-0-0-0-0-0-0-0-
 
 ---------------------------------------------------------------------
 ---------------------------------------------------------------------
 ---------------------------------------------------------------------
 -0--0-0-3--0-0-0-0-0-0-0-0-0-0-0-0--0-0-3--0-0-3--0--3-3-3-3-0-0-3-0-  
  
 ----------------------------------------------------------------------|
 ----------------------------------------------------------------------|
 ----------------------------------------------------------7-----7-----|
 -3-0-3----0-0-0-0-0-0-0-0-0-0-0-0--1-1-1-1-1-1-1-1-1-1-1/---6-5---6-5-|
 
 
               BASS FIG 4                        END FIG 4
 |-----------|------------------------------------------------|
 |-----------|------------------------------------------------|
 |-----------|-7---7-------------7---7-----7-------------7----|
 |-0--0-0--0-|-0-0-0--0-0-0-0-0--0-0-0--0--0--0-0-0-0-0--0--0-|
 
 
    INTERLUDE W/ BASS FIG 4  8x`s 
 
 
 |--------------------------------------------------------------|
 |--------------------------------------------------------------|
 |---7----------------5---------------4-------------------------|
 |-0---6-5---0-3-5--6---6-5--0-3-5--6---6-5--0-3-5-6-5-3-0-0--3-|
 
 
   CHORUS W/ BASS FIG 3  4x`s 
                               W/ BASS FIG 3
 
 
 |----------------------------------------------------|
 |----------------------------------------------------|
 |----7-------7------------------7--------------------|
 |-/6---6-5-----6-5--5H6-0-6-5-----6-5--0--3--0-------|



Текст, аккорды и табулатура для песни "Cure (btab)", исполняет "Metallica".
Используемые в песне аккорды можно найти в разделе Как брать аккорды. Аккорды для шестиструнной гитары. Другие песни можно найти на нашем сайте, воспользовавшись алфавитным указателем вверху страницы.


 
Ошибка в тексте? Выделите ошибку и нажмите Ctrl+Enter