Song: Bleeding Me
Band: MetallicA
Album: Load

Original Tab Steve Gorenberg
ReTab with time notation By Eros Fratini ([email protected])
Tune down 1/2 step
------------------------------ Bass Tab -------------------------------
Time 4/4
beat 116	

Intro:
:--------------------------------|--------------------------------|
:-------------Guitar-------------|--------------------------------|
:---------------x6---------------|-----------------------------5-/|
:--------------------------------|--------------------------------|

|--------------------------------|--------------------------------|
|--------------------------------|--------------------------------|
|10------------------9-h-10---9-|-7------------------------------|
|--------------------------------|-----------------0--------------|

|--------------------------------|--------------------------------|
|--------------------------------|--------------------------------|
|--------------------------------|--------------------------------|
|(0)-----------------------------|(0)-----------------------------|

|--------------------------------|--------------------------------|
|---------------------7----------|--------------------------------|
|-------------7-/-9------10-----|-7------------------------------|
|(0)-----------------------------|-----------------0--------------|

|--------------------------------|--------------------------------|
|--------------------------------|--------------------------------|
|--------------------------------|-7-----------------------------/|
|(0)-----------------------------|-----------------0--------------|

                                  From end of 1st verse
|--------------------------------|--------------------------------|
|--------------------------------|*-------------------------------|
|10------10--10---9-h10-p-9-----|*7------------------------------|
|--------------------------------|-0---------------0--------------|

|--------------------------------|--------------------------------|
|---------------------7----------|--------------------------------|
|-------------7-/-9------10-----|-7------------------------------|
|(0)-----------------------------|-----------------0--------------|

|--------------------------------|--------------------------------|
|--------------------------------|--------------------------------|
|--------------------------------|-7------------------------------|
|(0)-----------------------------|-----------------0--------------|

|--------------------------------:
|--------------------------------:
|10------10--10---9-h10-p-9-----:
|--------------------------------:

Verse 1, 2:
:--------------------------------|--------------------------------|
:--------------------------------|--------------------------------|
:-7----------0------------------|-------------0-----------5------|
:---------0-------0--------------|(0)------0-------2-/-3-------3--|

|--------------------------------|--------------------------------|
|--------------------------------|--------------------------------|
|-------------0------------------|-------------0-------0----------|
|(3)-2---0-------0--------------|(0)------0------/2-------3------|

|--------------------------------|--------------------------------|
|--------------------------------|--------------------------------|
|-------------0------------------|-------------0-----------5------|
|(3)-----0-------0--------------|(0)------0-------2-/-3-------3--|

|--------------------------------|--------------------------------|
|--------------------------------|--------------------------------|
|-------------0------------------|--------------------------------|
|(3)-2---0-------0---0-0-0------|/3-------3-------2-h-3---2-----|

|--------------------------------|--------------------------------|
|--------------------------------|--------------------------------|
|-------------0------------------|-------------0-------0----------|
|-1---0---0-------0--------------|(0)------0------/2-------3------|

|--------------------------------|--------------------------------|
|--------------------------------|--------------------------------|
|-------------0------------------|-------------0-----------5------|
|(3)-----0-------0--------------|(0)------0-------2-/-3-------3--|

|--------------------------------|--------------------------------|
|--------------------------------|--------------------------------|
|-------------0------------------|--------------------------------|
|(3)-2---0-------0-------0---0--|/3---3---3---3---2-h-3---2---2--|

|--------------------------------|--------------------------------|
|--------------------------------|-7---7-------7---7-------7-----|
|-7---7-------7---7-------7h2-/|-5---5---x---5---5---x---5h2-/|
|-0---0---x---0---0---x---0------|--------------------------------|

|--------------------------------|--------------------------------|
|-7---7-------7---7-------7-----|--------------------------------|
|-5---5---x---5---5---x---5-----|-5-/-7-------7---7------2---5--|
|--------------------------------|-0-------x---0---0--------------|

|--------------------------------|--------------------------------|
|--------------------------------|-7---7-------7---7-------7-----|
|-5-/-7-------7---7-------7h2-/|-5---5---x---5---5---x---5h2-/|
|-0-------x---0---0---x---0------|--------------------------------|

1.
|--------------------------------|--------------------------------|
|-7---7-------7---7--------------|-------------------------------*|
|-5---5---x---5---5---5---32p0-/|-------------------------------*|
|--------------------------------|-5-5-5-------5-5-5-------3------|

2.
|--------------------------------|--------------------------------:
|-7---7-------7---7------(7)----|--------------------------------:
|-5---5---x---5---5------(5)----|->--------------->--------------:
|--------------------------------|-5---5-5-5-5-5---5--5--5-3-----:

Chorus (After 2nd verse):

Fig. 1
:--------------------------------|--------------------------------|
:--------------------------------|--------------------------------|
:-2-------2-------2--------------|-5-------5-------5--------------|
:-0---0---0---0---0-----------3-/|-5-------5-------5-----------3-/|

|--------------------------------|--------------------------------|
|--------------------------------|--------------------------------|
|-5-------5---5---5-----------5--|-7-------7---7---7--------------|
|-5-------5---5---5-----------5--|-5-------5---5---5---0---3--(3)|

|--------------------------------|--------------------------------|
|--------------------------------|--------------------------------|
|-2-------2-------2--------------|-5-------5-------5--------------|
|-0---0---0---0---0-----------3-/|-5-------5-------5-----------3-/|

|--------------------------------|--------------------------------|
|--------------------------------|--------------------------------|
|-5-------5---5---5-----------5--|-7-------7---7---7--------------|
|-5-------5---5---5-----------5--|-5-------5---5---5---0---3--(3)|

|--------------------------------|--------------------------------|
|--------------------------------|--------------------------------|
|-2-------2-------2-/-3--2---0--|-5-------5-------5--------------|
|-0---0---0---0---0--------------|-5-------5-------5-----------3-/|

|--------------------------------|--------------------------------|
|--------------------------------|--------------------------------|
|-5-------5---5---5-----------5--|-7-------7---7---7--------------|
|-5-------5---5---5-----------5--|-5-------5---5---5---0---3--(3)|

|--------------------------------|--------------------------------|
|--------------------------------|--------------------------------|
|-2-------2-------2-/-3--2---0--|-5-------5-------5--------------|
|-0---0---0---0---0--------------|-5-------5-------5-----------3-/|

                          To Coda*                       end Fig.1|
|--------------------------------|--------------------------------|
|--------------------------------|--------------------------------|
|-5-------5---5---5-----------5--|-7-------7---7---7--------------|
|-5-------5---5---5-----------5--|-5-------5---5---5---0---3--(3)|

|--------------------------------|--------------------------------|
|--------------------------------|-7---7-------7---7-------7-----|
|-7---7-------7---7-------7h2-/|-5---5---x---5---5---x---5h2-/|
|-0---0---x---0---0---x---0------|--------------------------------|

|--------------------------------|--------------------------------|
|-7---7-------7---7------(7)----|->--------------->--------------|
|-5---5---x---5---5------(5)----|-7---------------7--0-2-2-5-5--|
|--------------------------------|-0-----0-0-0-0-0-0--------------|

|--------------------------------|--------------------------------|
|--------------------------------|-7---7-------7---7-------7-----|
|-5-/-7-------7---7-------7h2-/|-5---5---x---5---5---x---5h2-/|
|-0-------x---0---0---x---0------|--------------------------------|

|--------------------------------|--------------------------------:
|-7---7-------7---7-------7-----|--------------------------------:
|-5---5---x---5---5-------5-----|--------------------------------:
|--------------------------------|-5----5-5---5--5---5-----3------:

Interlude:
:--------------------------------|--------------------------------|
:*-------------------------------|--------------------------------|
:*7------------------------------|--------------------------------|
:-0---------------0--------------|(0)-----------------------------|

|--------------------------------|--------------------------------|
|--------------------------------|---------------------7----------|
|-7------------------------------|-------------7-/-9------10-----|
|-----------------0--------------|(0)-----------------------------|

|--------------------------------|--------------------------------|
|--------------------------------|--------------------------------|
|-7------------------------------|--------------------------------|
|-----------------0--------------|(0)-----------------------------|

                                  1. 
|--------------------------------|--------------------------------|
|--------------------------------|-------------------------------*|
|-7------------------------------|10------10--10---9-h10-p-9----*|
|-----------------0--------------|--------------------------------|

                                  2.
                                 |--------------------------------:
                                 |--------------------------------:
                                 |10------10--10---9--10---9-----:
                                 |--------------------------------:

Repeat Chorus Until to Coda

Coda:
:--------------------------------|--------------------------------|
:--------------------------------|--------------------------------|
:-7---7---7---7---7--------------|--------------------------------|
:-5---5---5---5---5---0---3------|-0------------------------------|

|--------------------------------|--------------------------------|
|--------------------------------|--------------------------------|
|--------------------------------|--------------------------------|
|(0)-----------------------------|(0)-----------------------------|

|--------------------------------|--------------------------------|
|--------------------------------|-------------Guitar-------------|
|--------------------------------|---------------x6---------------|
|(0)-----------------------------|--------------------------------|

|--------------------------------|--------------------------------|
|--------------------------------|--------------------------------|
|--------------------------------|->--->--->------->--->--->--->--|
|12--------------0--------------|12--12--12-----12--12-/12--12--|

|Fig.2                                                   end Fig.2|
|--------------------------------|--------------------------------:
|*-------------------------------|-------------------------------*: x 4
|*-------------------------------|-------------------------3-----*:
|-0--0-0--0---2---0-------5---0--|-----3---0---5---0---3-------3--:

Bridge:

   Repeat Fig.2 x 4

Chorus:

   Repeat Fig.1

Guitar Solo:
                               x 6
:--------------------------------|--------------------------------|
:*------------------------------*|--------------------------------|
:*------------------------------*|--------------------------------|
:-0---0---0---0---0---0---0---0--|-0---0---0---0---0---0---0---0--|

|--------------------------------|--------------------------------|
|--------------------------------|--------------------------------|
|-----------------------------0--|-2-------2---2---2---2---2---3--|
|-0---0---0---0---0---0---0------|--------------------------------|

|--------------------------------|--------------------------------|
|--------------------------------|--------------------------------|
|-----0---0-------0---3---3---0--|-2-------2---2---2---2---2---3--|
|--------------------------------|--------------------------------|

|--------------------------------|--------------------------------|
|--------------------------------|          Repeat Fig.2          |
|-----0---0-------0---5---5-/-7--|               x 4              |
|--------------------------------|--------------------------------|

|--------------------------------|--------------------------------|
|*-------------------------------|-------------------------------*| x 3
|*-------------------------------|-------------------------------*|
|-0------------------------------|(0)-----------------------------|

|--------------------------------|--------------------------------|
|--------------------------------|--------------------------------|
|--------------------------------|10------10--10---9--10---9------|
|-0------------------------------|--------------------------------|

|--------------------------------|--------------------------------|
|-------------Guitar-------------|--------------------------------|
|---------------x6---------------|-----------------------------5-/|
|--------------------------------|--------------------------------|

|--------------------------------:
|--------------------------------:
|10------10--10---9-h10-p-9-----:
|--------------------------------:

Verse 3:
:--------------------------------|--------------------------------|
:--------------------------------|--------------------------------|
:-7------------------------------|--------------------------------|
:-----------------7--------------|-0------------------------------|

|--------------------------------|--------------------------------|
|--------------------------------|---------------------7----------|
|-7------------------------------|-------------7-/-9------10-----|
|-----------------0--------------|-0------------------------------|

|--------------------------------|--------------------------------|
|--------------------------------|--------------------------------|
|-7------------------------------|--------------------------------|
|-----------------0--------------|-0------------------------------|

|--------------------------------|--------------------------------|
|--------------------------------|--------------------------------|
|-7------------------------------|10------10--10---9-h10-p-9-----|
|-----------------0--------------|--------------------------------|

|--------------------------------|--------------------------------|
|--------------------------------|--------------------------------|
|-7------------------------------|--------------------------------|
|-----------------0--------------|-0------------------------------|

|--------------------------------|--------------------------------|
|--------------------------------|---------------------7----------|
|-7------------------------------|-------------7-/-9------10-----|
|-----------------0--------------|-0------------------------------|

|--------------------------------|--------------------------------|
|--------------------------------|--------------------------------|
|-7------------------------------|--------------------------------|
|-----------------7--------------|-0------------------------------|

|--------------------------------|--------------------------------|
|--------------------------------|--------------------------------|
|-7------------------------------|10------10--10---9--10---9------|
|-----------------0--------------|--------------------------------|

|--------------------------------|--------------------------------:
|--------------------------------|--------------------------------:
|-7------------------------------|(7)-----------------------------:
|-0------------------------------|(0)-----------------------------: End

-----------------------------------------------------------------------



Текст, аккорды и табулатура для песни "Bleeding Me", исполняет "Metallica".
Используемые в песне аккорды можно найти в разделе Как брать аккорды. Аккорды для шестиструнной гитары. Другие песни можно найти на нашем сайте, воспользовавшись алфавитным указателем вверху страницы.


Слушать онлайн Bleeding Me


Vitamin PianoBleeding Me на Яндекс.Музыке


 
Ошибка в тексте? Выделите ошибку и нажмите Ctrl+Enter