Astronomy - Metallica

e--0-0-------
B--0-0-0-----
G--0-0--2-0-- repeat about 8 times
D--2-2-------
A--2-2-------
E--0-0-------

verse chords:
e--0--2--0-----0-0--3--0----0--2--0-----0
B--0--3--1--0--0-1--3--1----0--3--1--0--0
G--0--2--0--0--0-0--0--0--4-0--2--0--0--0    repeat
D--2--0--2--0--2-2--0--2--4-2--0--2--0--2
A--2-----3--2--2-3-----3--2-2-----3--2--2
E--0-----------0----3-------0-----------0

riff with harmony:
D--9-7--7------9-7--7----B--5-3-5-5--------------------
A-----10-10-9-----10-10-7G---------4-4-7--5-4-2-5-4-2-4

play C5 and D5 leading up to the chorus
Chorus:
e-------------------------
B-------------------------
G--9--9-9--5-5--7-7-7--9-9
D--9--9-9--5-5--7-7-7--9-9
A--7--7-7--3-3--5-5-5--7-7
E--0-0--0--------------0-0

play verse
play chorus

outro chorus:
e-------------------------
B-------------------------
G--9--9-9--7-7--5-5-5--7-7
D--9--9-9--7-7--5-5-5--7-7
A--7--7-7--5-5--3-3-3--5-5
E--0-0--0-----------------


[email protected]


Текст, аккорды и табулатура для песни "Astronomy", исполняет "Metallica".
Используемые в песне аккорды можно найти в разделе Как брать аккорды. Аккорды для шестиструнной гитары. Другие песни можно найти на нашем сайте, воспользовавшись алфавитным указателем вверху страницы.


Слушать онлайн Astronomy


Vitamin PianoAstronomy на Яндекс.Музыке


 
Ошибка в тексте? Выделите ошибку и нажмите Ctrl+Enter