1)
e-----------------------------------------------------------------------
B-----------------------------------------------------------------------
G--------------------------------------------------------------------2--
D--6-7-9---7-6h7p6-4-5-5-4-7-4-2-3-5---3-2h3p2-0-2-2-0-2-0-0-2-2-0-2---3
A--7-----7---------5-----5---5-3-----3---------2-----2---2-1-----1-----1
E--0--------------------------------------------------------------------
                                               *************************
Играть чисто, но в 3ий и в 4ый разы «****» играть с distortion, а 5ый раз 
Весь рифф с distortion целиком.

2)
D--8-7--8-7-6--8-7-6-5--8-7-5-4-7-5-4-2-5-4-2-7-4-2-4-2-5-3-2-5-3-2-5-3-2
A--8-7--8-7-6--8-7-6-5--8-7-5-4-7-5-4-2-5-4-2-7-4-2-4-2-5-3-2-5-3-2-5-3-2
E--6-5--6-5-4--6-5-4-3--6-5-3-2-5-3-2-0-3-2-0-5-2-0-2-0-5-3-0-5-3-2-5-3-0
  pm...................................................................


3)
D--8-8-7--8-8-7-----------8-8-7--------------------------------
A--8-8-7--8-8-7--7-7-5----8-8-7--7-7-5----8-8-7--8-8-7--5-5-4-2
E--6-6-5--6-6-5--------7--6-6-5--------7--6-6-5--6-6-5--3-3-2-0
 pm............           .....


4)
D-----------------------3-3-2--3-3-2
A--2-2--2-2-3--2-2-2-2--1-1-0--1-1-0
E--0-0--0-0-1--0-0-0-0--------------
  pm.......      ...    .....  .....
Halls of Justice...


5)
D-------------------4-----------------------4
A--2-2-2-2-2-5-5-5--4-------------54-2-4/5-4
E--0-0-0-0-0-3-3-3--2-2-2-2-2-2-2-32-0-2/3-2
  pm..............    ...........     .  
                    The ultimate insanity....

6)
G--0h5h7---------------------
D---------0h5h7--------------
A----------------0h5h7--0h2h3
E----------------------------
...supremacy


7)
D--2----------------------
A--2-------------3-2-0-2-3
E--0-0-0-0-0-0-0-1-0-0-0-1
  pm............
Nothing can save you


8)
D--2--4--5------*-2--4--5------*-2--4-----5-----3-3-2--3-3-2
A--0--2--3--3-2-*-0--2--3--3-2-*-0--2--5--3--3--1-1-0--1-1-0
E-----------1-0-*----------1-0-*-------3-----1--------------
Justice is lost
* - вставить 7ой рифф


9)
D---------------------------------------------------
A--8-8-7--8-8-7--7-7-5--7-7-5--5-5-4--5-5-4--3-3-3-3
E--6-6-5--6-6-5--5-5-3--5-5-3--3-3-2--3-3-2--1-1-1-1
pm....    ...    ...    ...    ...    ...    .......
после соло


10)
G--9-----97-----75-----54-----43-----3-3-----3-3-----3--
D--9-----97-----75-----54-----43-----3-3-----3-3-----3-2
A--7-x-x-75-x-x-53-x-x-32-x-x-21-x-x-1-1-x-x-1-1-x-x-1-2
E--7-x-x-75-x-x-53-x-x-32-x-x-21-x-x-1-1-x-x-1-1-x-x-1-0
pm........................................................
второе соло 


11)
D-----2-----2--5--4--2-------
A--2--0--2--0--3--2--0--5-3-2
E--0-----0--------------3-2-0
«2» для последнего риффа

__________________________
соло

----------------------------------------------|
----------------------------------------------|
-------------------------------------0h-5h-7--|
--2-------------------------0h-5h-7-----------|
--2----------------|--0h-2h-3--0h-5h-7--------------------|
--0-------------------------------------------|


                                                                      
---------------------------------------------|
----------------8----|--7--------------------------------|
---------9-----------|---------9------7----|--5----4--4~---4--5p4----|
--9---------------------------------------7--|
---------------------------------------------|
---------------------------------------------|


                                                                        
-----------------------------------------------|
--------------------------------8----|--7------------------|
--4------------------------|---------9-----------|---------9------7----|
-----7--5--3--3h5p3-2~-----|--9----------------------------|
-----------------------------------------------|
-----------------------------------------------|


                                                                     
--------------------------------------------|
---------------------------------------8----|
--5----4--4~---4--5p4p0-----------|---------9-----------|
-------------------------|--2/-3--------------|--9------------------|
--------------------------------------------|
--------------------------------------------|


                                                                        
-----------------------------------------------|
--7------5----7p5p3---------9h10---|--8------7----8p7p5----|
-----------------------|---------9-------------------------|
-----------------------|--9--------------------------------|
-----------------------------------------------|
-----------------------------------------------|


                                                                    
-------------------------------------------------------|
----------------12----|--12p-10p-8--12p-10p-8--12p10p87-10p-8p-7--|
---------9---------------------------------------------|
--9----------------------------------------------------|
-------------------------------------------------------|
-------------------------------------------------------|


                                                                              
-----------------------------------------------------------------|
-----------------------------------------------------------------|
--11p-9p-7--11p-9p-7--11p9p75-9p7p5--|--0h-5h-7-----------------------------|
--------------------------------------0h-5h-7--------------------|
-----------------------------------------------0h-5h-7--0h-2h-3--|
-----------------------------------------------------------------|


                                                                
---------------------------------------------------|
---------------------------------------------------|
--0h-5h-7-----------------------------|--5--5--4----5--5--4----|
-----------0h-5h-7--------------------|--5--5--4----5--5--4----|
--------------------0h-5h-7--0h-2h-3--|--3--3--2----3--3--2----|
---------------------------------------------------|


                                              
----------------------------|----14------17r-|
--17b-----14----------------|--------14------|
--16b-----14--------14--16b------|
----------------16---------------|
---------------------------------|
---------------------------------|


                                                                
------17--14--17p14-17p14-----19p14-|--20p14-20p14----19p14-17-|
--------------------------17-----------17----------|
---------------------------------------------------|
---------------------------------------------------|
---------------------------------------------------|
---------------------------------------------------|


                                                    
--17p14-17p14-----14--14~--------------|
--------------17------17b-------14--|--16b---16b---|
--------------------------------14--|--16b---16b---|
----------------------------16---------|
---------------------------------------|
---------------------------------------|


                                                          
---------------------------------------------|
--16r---14p-16--14b-----16--14~-|--------14--17~---------|
--16r---14------14b-----16--14~-|--------14--16b---------|
--------------------16----------|----16------------------|
---------------------------------------------|
---------------------------------------------|


                                                                    
----------------------------17p14----------------------|
--14--14-17p14-----14-17p14-------17-14----14-|--17p14-------------|
--16b-----------16b---------------------16b---|--------16--14------|
---------------------------------------------------16--|
-------------------------------------------------------|
-------------------------------------------------------|


                                                            
-----------------------------------------------|
----------14h-17--17r17p14--17--17r-|--17p14h17--17r-17p14h|
--14--16---------------------------------------|
-----------------------------------------------|
-----------------------------------------------|
-----------------------------------------------|


                                                
------------------17b-----17b------|
--17--17r--17p14--------------|------x---------|
------------------------------|------16p14h16--|
-----------------------------------|
-----------------------------------|
-----------------------------------|


                                                              
-------------------------------------------------|
-------------------------------------17b---------|
--16b-16--16r-16--16--16--16--16--|--16--16p-14--------------|
-------------------------------------------------|
-------------------------------------------------|
-------------------------------------------------|


                                                   
--22p19p0-0-0-21p17p0-0-0-18p15p0-0-0-17p14p0-0-0-|
--------------------------------------------------|
--------------------------------------------------|
--------------------------------------------------|
--------------------------------------------------|
--------------------------------------------------|


                                                   
--22p19p0-0-0-21p17p0-0-0-18p15p0-0-0-17p14p0-0-0-|
--------------------------------------------------|
--------------------------------------------------|
--------------------------------------------------|
--------------------------------------------------|
--------------------------------------------------|


                                           
--19p0-17p0-15p0-14p0-17p0-15p0-14p0-12p0-|
------------------------------------------|
------------------------------------------|
------------------------------------------|
------------------------------------------|
------------------------------------------|


                                                                       
--15p0-14p0-12p0-10p0-10p8p7--------10p8p7----------------|
-----------------------------10p8p7--------10p8p0-|--5----------------|
--------------------------------------------------|--5----------------|
----------------------------------------------------------|
----------------------------------------------------------|
----------------------------------------------------------|
___________________
Басс

Басовый рифф1
------------------|
------------------|
|--2-2-2-2-2-2-1-1-1-1-1-0-1--|
------------------|

Басовый рифф2
-------------------------------------4-------------3----|
------------7--------------------4---------------3------|
|--7-7-7--7-5h7-5-5-5-5---5-3-3-3--3-3h5-2-2---2---2-1-1-3-1-----1--|
--------------------------------------------------------|

Басовый рифф3
-----------------------------------------------------|
------------------------------------------------3-2--|
----------------------------------------------0------|
|---6----6-5----6-5-4----6-5-4-3----6-5-3-1-5-3-1-0-3-1-0--------|

Басовый рифф3 (продолжение)
----------------------|
----------------------|
|--3--2--0-----2-0-----0----------|
3------3-2---3-2-1-0--|

Басовый рифф4
----------------------------------------------------|
----------------------------------------------------|
------------5h7--7-5------------------5h7--7-5------|
|--6--6--5---6--6--5--0------------7---6--6--5--0------------7--|

Басовый рифф5
--------------------------------------------------------------|
--------------------------------------------------------------|
--------------7------7-----------------------0----------0-----|
|--6--6--5---6--6--5---0------0------0--0---2--3--0---0------3--5------0--|

Басовый рифф5 (продолжение)
-----------------------------------------------------------|
-----------------------------------------------------------|
|------0-0-----0-0-----7------7-----------------------0----------0-----|
|--0-3-----0-3------0------0------0--0---2--3--0---0------3--5------0--|

Басовый рифф5 (продолжение)
----------|
----------|
|--------0---8--8--7--|
|--0--3---------------|

Басовый рифф6
-----------------------------------------------------|
-----------------------------------------------------|
|----5h7--7-5------------------5h7--7-5--------------------------|
|--0------------7---6--6--5--0------------7---6--6--5---6--6--5--|

Басовый рифф6 (продолжение)
-----------------------------------------------------|
-----------------------------------------------------|
|----5h7--7-5------------------5h7--7-5--------------------------|
|--0------------7---6--6--5--0------------7---6--6--5---3--3--2--|

Басовый рифф7
------------------------------------------------|
------------------------------------------------|
|----7----7--7---------------7----7--7----------------------|
|--0----0----0---0--0--1---0----0----0---6--6--5---6--6--5--|

Басовый рифф8
---------------|
---------------|
|-----7--7--------5--5-----|
|--0--------0--0--------3--|

Басовый рифф9
------------------------|
------------------------|
------------------------|
|--2---2-2-2-2-2-2-3-2-0-2h3---2h3--|

Басовый рифф10
--------|
--------|
--------|
|--2---2-2-2-2-2-2--|

Басовый рифф11
-------------------|
|--5---------------------------|
|----------3--3-----------5h7--|
----------5h7------|

Басовый рифф12
-----------------------------------------------------|
-----------------------------------------------------|
|--7-------------------------------------------------------------|
|--0---0-0-0-0-0-0--1-0-0-0h1---0h1---5---5-5-3-5-7---7-7-5-7-8--|

Басовый рифф12 (продолжение)
----------------------------------------------------------|
----------------------------------------------------------|
-----------------------------------------------------7-8--|
|--7-5-3-1--0---0-0-0-0-0-0--1-0-0-0h1---0h1---5--5-5-3-5-7--10-------|

Басовый рифф12 (продолжение)
-----------------------------------------------------|
-----------------------------------------------------|
|--7-------------------------------------------------------------|
|--0---0-0-0-0-0-0--1-0-0-0h1---0h1---5---5-5-3-5-7---7-7-8-7-5--|

Басовый рифф12 (продолжение)
--------------------------------------------|
--------------------------------------------|
|----------5--3--3-3-2----------------------------------|
|--3-3-5-3-------------3-2-1----1----6--6--5---6--6--5--|

Басовый рифф13
-----------------------------------------------------|
-----------------------------------------------------|
|----5h7--7-5------------------5h7--7-5--------------------------|
|--0------------7---6--6--5--0------------7---6--6--5---6--6--5--|

Басовый рифф13 (продолжение)
---------------------------------|
---------------------------------|
|----5h7--7-5------------------5h7--7-5------|
|--0------------7---6--6--5--0------------7--|

Басовый рифф14
-------------------------|
-------------------------|
-------------------------|
|--0---0-0-0-0-0-0--1-0-0-0h1---0h1--|

Басовый рифф15
----------|
----------|
|--3--3--2---3--3--2--|
----------|

Басовый рифф16
-----------|
-----------|
-----------|
|--0-2--0-2--2--0-2-3--|

Басовый рифф17
------------------------------------------|
------------------------------------------|
|-----5--5--------3--3--------4--4--------2--2--------|
|--0--------3--0--------1--0--------2--0--------0--0--|

Басовый рифф18
--------------------------------------------------|
-----------------------------------------------4--|
-------------------------------------4------------|
|--5--5--3---5--5--3---3--3--2---3--3--2---2--2------2--2-----|

Басовый рифф18 (продолжение)
---------|
|--------3-----------|
---3-----|
|--1--1-----1-----1--|

Басовый рифф19
-----------------------------------------4-------------3----|
---9-----------7---------------5-----4---------------3------|
|--7-----9-7-7---5-----7-5---5-3-----5-3-3---2-2---2---2-1-1-3-1-----1--|
|----0-0-----------0-0-----------0-0------------------------------------|

Басовый рифф19 (продолжение)
-3-----------------------------------------------------------|
|------3---3-------------------------------------------------------------|
|--1-1---1-----1---7------7---5------5---3------3---2------2---1------1--|
-------0--x-x-0------x-x--------x-x--------x-x--------x-x----|

Басовый рифф19 (продолжение)
---------------|
---------------|
|--1------1---1------1-----|
|-----x-x--------x-x----0--|

Басовый рифф20
----------|
----------|
----------|
|--6--6--5---3--3--2--|

Басовый рифф21
------------------------------------------|
------------------------------------------|
|-----7------7-----------------------0----------0-----|
|--0------0------0--0---2--3--0---0------3--5------0--|

Басовый рифф21 (продолжение)
-----------------------------------------------------------|
-----------------------------------------------------------|
|------0-0-----0-0-----7------7-----------------------0----------0-----|
|--0-3-----0-3------0------0------0--0---2--3--0---0------3--5------0--|

Басовый рифф21 (продолжение)
----------|
----------|
|--------0---8--8--7--|
|--0--3---------------|

Басовый рифф22
---------------------------------------------------------------|
---------------------------------------------------------------|
|-----7------7--7----------------------------------------------------5--3--|
|--0------0-----0---0--2--3--0---5---5-5-3-5-7---7-7-8-7-5-3---3-5-3-------|

Басовый рифф22 (продолжение)
---------------------------------|
---------------------------------|
|--3--3--2-----------------------------------|
-3--2--1------6--6--5---6--6--5--|

Басовый рифф23
-----9------------------------------|
|--9-------9----------------------------12------|
|--7----------7-----7--12-------12--------------|
-----------10-----------10------10--|

Басовый рифф24
----------------------------|
-----9-----7----------------|
|--9-------9-----------0----------------|
|--7----------7-----7----------3--3--2--|

Басовый рифф25
-------------------------------------------|
--------7----------------------------------|
|--9----------------0----------------------------------|
|--7-------6--6--5----------3--3--2-----------3--3--0--|

Порядок:
Басовый рифф1 x 2
Басовый рифф2 x 2
Басовый рифф3 x 1
Дать последней ноте прозвучать на время партии ударных
Басовый рифф4 x 4
Басовый рифф5 x 1
Басовый рифф6 x 1
Басовый рифф7 x 6
Басовый рифф8 x 1
Басовый рифф9 x 3
Басовый рифф10 x 1
Небольшая пауза для гитары
Басовый рифф9 x 3
Басовый рифф10 x 1 (После этого пауз нет)
Басовый рифф11 x 1
Басовый рифф12 x 1
Басовый рифф6 x 1
Басовый рифф7 x 6
Басовый рифф8 x 1
Басовый рифф9 x 3
Басовый рифф10 x 1
Небольшая пауза для гитары
Басовый рифф9 x 3
Басовый рифф 10 x 1 (После этого пауз нет)
Басовый рифф11 x 1
Басовый рифф12 x 1
Басовый рифф13 x 1
Басовый рифф3 x 1
Басовый рифф14 x 3
Небольшая пауза для гитары
Басовый рифф14 x 3
Небольшая пауза для гитары
Басовый рифф15 x 1
Басовый рифф16 x 3
Басовый рифф15 x 1
Басовый рифф16 x 3
Басовый рифф15 x 1
Басовый рифф8 x 2
Басовый рифф17 x 1
Басовый рифф7 x 4
Басовый рифф18 x 1
Басовый рифф2 x 4
Басовый рифф19 x 1 
Дать последней ноте прозвучать на время партии ударных
Басовый рифф4 x 2
Басовый рифф20 x 1
Басовый рифф7 x 4
Басовый рифф8 x 2
Басовый рифф9 x 3
Басовый рифф10 x 1
Небольшая пауза для гитары
Басовый рифф9 x 3
Басовый рифф10 x 1 (После этого пауз нет) 
Басовый рифф11 x 1
Басовый рифф12 x 1
Басовый рифф21 x 1
Басовый рифф22 x 1
Басовый рифф21 x 1
Басовый рифф23 x 1
Басовый рифф24 x 1
Басовый рифф23 x 1
Басовый рифф25 x 1

Halls of Justice Painted Green
Money Talking
Power Wolves Beset Your Door
Hear Them Stalking
Soon You´ll Please Their Appetite
They Devour
Hammer of Justice Crushes You
Overpower

The Ultimate in Vanity
Exploiting Their Supremacy
I Can´t Believe the Things You Say
I Can´t Believe
I Can´t Believe the Price You Pay
Nothing Can Save You

Justice Is Lost
Justice Is Raped
Justice Is Gone
Pulling Your Strings
Justice Is Done
Seeking No Truth
Winning Is All
Find it So Grim
So True
So Real

Apathy Their Stepping Stone
So Unfeeling
Hidden Deep Animosity
So Deceiving
Through Your Eyes Their Light Burns
Hoping to Find
Inquisition Sinking You
With Prying Minds

Lady Justice Has Been Raped
Truth Assassin
Rolls of Red Tape Seal Your Lips
Now You´re Done in
Their Money Tips Her Scales Again
Make Your Deal
Just What Is Truth? I Cannot Tell
Cannot Feel

Seeking No Truth
Winning Is All
Find it So Grim
So True
So Real


Текст, аккорды и табулатура для песни "...And Justice For All", исполняет "Metallica".
Используемые в песне аккорды можно найти в разделе Как брать аккорды. Аккорды для шестиструнной гитары. Другие песни можно найти на нашем сайте, воспользовавшись алфавитным указателем вверху страницы.


Слушать онлайн ... And Justice For All


Metallica... And Justice For All на Яндекс.Музыке


 
Ошибка в тексте? Выделите ошибку и нажмите Ctrl+Enter