Вступление:

e|-----0-2-0---0---|
h|---3-------3-----|
g|-2---------------|
d------|
a------|
e------|

Соло в начале:

e|---0-2-2-2-0--2-0-2------0-2-2-2--5-5-3-2-0---0-2---2-2-0-2-0-----|
h|-3------------------3--3--------------------------3-----------3---|
g-------------------------------------------------------|
d-------------------------------------------------------|
a-------------------------------------------------------|
e-------------------------------------------------------|


e---------------|
h---------------|
g|--2--2--2-3--2------------|
d-----5--4--2---|
a---------------|
e---------------|

 D         G
 Я не знаю почему
 D             A  
 В понедельник я не пью
 Hm          G 
 В среду я совсем не сплю
 D         A 
 Я пятницу люблю
 
 А в субботу целый день
 Меня всего съедает лень
 Вторник неприятный день
 Я пятницу люблю

         D        A         
 Припев: Не могу узнать  
         Hm            G                       
         Когда я буду любить опять
         D             A   
         Когда я буду тебя целовать
   
 Я не знаю почему 
 В понедельник я не пью
 В среду я совсем не сплю
 Я пятницу люблю

Соло:

e------------------/10~--12~--9-9--9h10p9--9--9--|
h|--7-7-7--7-7-5-7--/10~--10-8-------------------------10----|
g------------------------------------------------|
d------------------------------------------------|
a------------------------------------------------|
e------------------------------------------------|


e|-------17~--15--14--10-----10-14~-15-15-14-12-10--|
h|--12~------------------10--10---------------------|
g---------------------------------------|
d---------------------------------------|
a---------------------------------------|
e---------------------------------------|

 В понедельник солнце жгет
 А во вторник дождь идет
 В среду снова жду грозу
 Я пятницу люблю
 
Припев.
 
 Hm            G
 Как полковник звезду
             D  
 Как Герасим Му-Му
        A            Hm
 Почему тебя я так люблю
 Не приходишь ко мне
 Ты черт знает где
 Может ты с Незнайкой на Луне
 Я сойду так с ума 
 Ты опять не права
 На небе полная Луна
 И надеюсь вот вот
 Это произойдет
 Я пятницу люблю

 Я не знаю почему 
 В понедельник я не пью
 В среду я совсем не сплю
 Я пятницу люблю
 
 А в субботу целый день
 Меня всего съедает лень
 Вторник неприятный день
 Я пятницу люблю


Текст, аккорды и табулатура для песни "Пятница", исполняет "Место Встречи".
Используемые в песне аккорды можно найти в разделе Как брать аккорды. Аккорды для шестиструнной гитары. Другие песни можно найти на нашем сайте, воспользовавшись алфавитным указателем вверху страницы.


 
Ошибка в тексте? Выделите ошибку и нажмите Ctrl+Enter