------------------------------------------------------------------------------- 
                          WITHOUT YOU - Mest 
------------------------------------------------------------------------------- 

By: Phillip ([email protected]) 

~ means let note ring 

Intro (x4) Bridge (x2) 
G|---------------------*---------------------------------------------| 
D|-------3~---7~---5~--*---------------------------------------------| 
A|--3~-----------------*---------------------------------------------| 
E|---------------------*--11--33333333-------------------------------| 

Verse 1 (x2) 
G|-------------------------------------------------------------------| 
D|-------------------------------------------------------------------| 
A|--3>---0>----------------------------------------------------------| 
E|------------1>---3-33-3333-----------------------------------------| 

Chorus (x2) Bridge 
G|---------------------------------------*---------------------------| 
D|---------------------------------------*---------------------------| 
A|--33333333-----------------------------*---------------------------| 
E|-----------11111111-55555555-33333333--*--11-33333333--------------| 

Verse 2 (x2) 
G|-------------------------------------------------------------------| 
D|-------------------------3-33-3333---------------------------------| 
A|--3-33-33332--0-00-0000--------------------------------------------| 
E|------------------------------------3-33-3333----------------------| 

Chorus (x4) 

Bridge (x2) 
G|-------------------------------------------------------------------| 
D|-------------------------------------------------------------------| 
A|-------------------------------------------------------------------| 
E|--1111111111111111-3333333333333333--------------------------------| 

Chorus (x1) 

Rest 

Chorus 
G|-------------------------------------------------------------------| 
D|-------------------------------------------------------------------| 
A|--33------------------33-----------10-10-10-10-10-10-10-10---------| 
E|-------11---55---33--------11---55/--------------------------------| 

Chorus (x4) 

There's another new Mest song for ya. 
===============================================================================


Текст, аккорды и табулатура для песни "Without You", исполняет "Mest".
Используемые в песне аккорды можно найти в разделе Как брать аккорды. Аккорды для шестиструнной гитары. Другие песни можно найти на нашем сайте, воспользовавшись алфавитным указателем вверху страницы.


Слушать онлайн Without You


MestWithout You на Яндекс.Музыке


 
Ошибка в тексте? Выделите ошибку и нажмите Ctrl+Enter