--------------------------------------------------------------------------------------- 
                     THE INNOCENT - Goldfinger/Mest/Good Charlotte 
--------------------------------------------------------------------------------------- 

Tabbed by: Keener ([email protected]) 

Download at goldfingermusic.com |or| mestcrapp.com 
Amazing song seeing as it was composed and recorded in under 2 weeks. 
Tell everyone you know about it... 
Peace 

0:00 0:10 
G|---------|-------------------------------------------------------| 
D|-No-Bass-|-------------------------------------------------------| 
A|-First-10|-55555555--------------------------55555555------------| 
E|-Seconds-|---------55555555-77777-5-33333333----------55555555-3-| 

0:20 
|----------------------------------------------------------| 
|----------------------------------------------------------| 
|-5-555-----------------------5-555---------------22-33-44-| 
|-------5-555-7-77-5-33333333-------5-555-33-33-33---------| 

0:30 
|--------------------------------------------------------2222-0000------| 
|------------------------------------------------------------------4444-| 
|-55555555--------------------------55555555----------------------------| 
|---------55555555-77777-5-33333333---------55555555-3333---------------| 

0:40 
|-----------------------------------------------| 
|-----------------------------------------------| 
|-5-5-------------------------------------------| 
|-----555-7-7-222-33333333-555555555-77777777---| 

0:50 1:01 
|-------------------------------------------------------------------------| 
|---7---------------------------------0---------0------------------------| 
|-5---------9-----------------------22-2-4-2-0-2-2-4-2-0-2------5555(x4)-| 
|-----555-7---222-33333333-555555555-------------------------3-5----------| 

1:06 
|--------------------------------------------------------------------| 
|--------------------------------------------------------------------| 
|-55555555--------------------------55555555-------------------------| 
|---------55555555-77777-5-33333333---------55555555-333-333-333-355-| 

1:16 /those are 10's 
|----------------------------------------------------------------------------| 
|----------------------------------------------------------------------------| 
|-55555555--------------------------55555555--------------7777-10101010-9999-| 
|---------55555555-77777-5-33333333---------55555555-3333--------------------| 

1:26 
|-----------------------------------------------| 
|-----------------------------------------------| 
|-5-5-------------------------------------------| 
|-----555-7-7-222-33333333-555555555-77777777---| 

1:36 I'm not sure about this one... 
|----14--------------------------------------------------| 
|-12--------------16-------------------------------------| 
|--------121212-14----999-10(x8)-12(x8)-14(x16)--10-12-14-| 
|---------------------------------------------------------| 

1:52 
|--------------------------------------------------------------------| 
|--------------------------------------------------------------------| 
|-55555555--------------------------55555555-------------------------| 
|---------55555555-77777-5-33333333---------55555555-333-333-333-333-| 

2:02 
|--------------------------------------------------------------------| 
|--------------------------------------------------------------------| 
|-55555555--------------------------55555555-------------------------| 
|---------55555555-77777-5-33333333---------55555555-333-333-333-333-| 

2:12 
|----------------------------------------------| 
|----------------------------------------------| 
|-5--------------------------------------------| 
|----55-7---22-33333333-55555555-7777777777777-| 

2:22 
|-------------------------------------------------| 
|-------------------------------------------------| 
|-5-5---------------------------------------------| 
|-----5-5--7-7--2-2--3333-5555-77777777-3333-5555-| 

-------------------------------------------------------------------------------


Текст, аккорды и табулатура для песни "The Innocent", исполняет "Mest".
Используемые в песне аккорды можно найти в разделе Как брать аккорды. Аккорды для шестиструнной гитары. Другие песни можно найти на нашем сайте, воспользовавшись алфавитным указателем вверху страницы.


Слушать онлайн How Long Must I Wait


NajwaHow Long Must I Wait на Яндекс.Музыке


 
Ошибка в тексте? Выделите ошибку и нажмите Ctrl+Enter