Return to self-loathing - Mest
Tabbed by: Rachel
Email:rach_721_01

Tuning: drop C.  C G C F A D

	 This is a good tab. I play it with the song all of 
            the time, and it matches up exactly, so yeah.
 


    INTRO:

 e|-------------------------------------------|
 B|-------------------------------------------|
 G|-------7----7----9----9----6----6---9---9--|
 D|-----7----7----7----7----7----7----7---7---|
 A|---5----5----5----5----5----5-----5---5----|
 E|-------------------------------------------|


 e|---------------------------|
 B|---------------------------|
 G|--7-----2----4-------------|
 D|--7-----2----4----5--------|  X2
 A|--5-----0----2----5--------|
 E|------------------5--------|
  


  Verse:
 e|---------------------------------------------------------|
 B|---------------------------------------------------------|
 G|--7----6----4----7----6----4-----------------------------|
 D|--7----6----4----7----6----4-----5---9---7---5---9---7---|X2
 A|--5----4----2----5----4----2-----5---9---7---5---9---7---|
 E|---------------------------------5---9---7---5---9---7---|


  Chorus:
 e|----------------------------------|
 B|----------------------------------|
 G|---7-------2-------4--------------|
 D|---7-------2-------4------5-------|
 A|---5-------0-------2------5-------|
 E|--------------------------5-------|

 e|---------------------------------|
 B|---------------------------------|do this after the first chorus.
 G|------6-----6-----6-----6--------|
 D|----7-----7-----7-----7----------|
 A|--5-----5-----5-----5------------|
 E|---------------------------------|

 verse 2: (you can also do the same as up there,
  but i like this better)
 e|---------------------------------------------------|
 B|---------------------------------------------------|
 G|------6---4--------6---4---------------------------|
 D|--0---6---4---0----6---4----5---9---7---5---9---7--|
 A|--0---4---2---0----4---2----5---9---7---5---9---7--|
 E|--0-----------0-------------5---9---7---5---9---7--|
  
   Chorus:
 e|--------------------------|
 B|--------------------------|
 G|---7----2----4------------|
 D|---7----2----4---5--------|X2
 A|---5----0----2---5--------|
 E|-----------------5--------|

   Bridge:
 e|-----------------------------|
 B|-----------------------------|
 G|-----------------------------|
 D|---9----4----5--4--5---------|x5
 A|---9----4----5--4--5---------|
 E|---9----4----5--4--5---------|

  1 strum lightly for each:
 e|-----------------------------|
 B|-----------------------------|
 G|---7----2----4---------------|
 D|---7----2----4----5----------|
 A|---5----0----2----5----------|
 E|------------------5----------|

    Chorus:
 e|-----------------------------------|
 B|-----------------------------------|
 G|---7-----2-----4-------------------|X2
 D|---7-----2-----4----5--------------|
 A|---5-----0-----2----5--------------|
 E|--------------------5--------------|

   Outro:
 e|-------------------------------------------------------|
 B|-------------------------------------------------------|
 G|------7-----7------9------9------6-----6-----7-----7---|do until song
 D|----7-----7------7------7------7-----7-----7-----7-----|ends.
 A|--5-----5------5------5------5-----5-----5-----5-------|
 E|-------------------------------------------------------|

   In the middle of the third time doing the outro,a guitar will join 
in and play the chorus, do whichever you like better.
 That's all I have I hope you enjoy it. Feel free to email me with
questions and/or comments.


Текст, аккорды и табулатура для песни "Return To Selfloathing", исполняет "Mest".
Используемые в песне аккорды можно найти в разделе Как брать аккорды. Аккорды для шестиструнной гитары. Другие песни можно найти на нашем сайте, воспользовавшись алфавитным указателем вверху страницы.


Слушать онлайн Return To Self-Loathing


MestReturn To Self-Loathing на Яндекс.Музыке


 
Ошибка в тексте? Выделите ошибку и нажмите Ctrl+Enter