-------------------------------------------------------------------------------
Living Dead - Mest
-------------------------------------------------------------------------------

Pretty simple song I’ve put verything up here timing might not be perfect
but it’s all there enjoy

Intro 1  (guitar 1)
e|-----------------------------------------------------------------|
B|-----------------------------------------------------------------|
G|-9--7-6--9--7-6--9--7-6--4-6---9--7-6--9--7-6--9--7-6-9999999----|
D|-----------------------------7-----------------------------------|
A|-----------------------------------------------------------------|
E|-----------------------------------------------------------------|
	(guitar 2)
e|-----------------------------------------------------------------|
B|-----------------------------------------------------------------|
G|---------66------77-------99------------66-----77-----99999999---|
D|-77------66------77-------99---77-------66-----77-----99999999---|
A|-77------44------55-------77---77-------44-----55-----77777777---|
E|-55----------------------------55--------------------------------|

Verse	(both guitars)
e|--------------------------------------------------------------------------|
B|--------------------------------------------------------------------------|
G|----------66666666-77777777-99999999----------66666666-77777777-999999999-|
D|-77777777-66666666-77777777-99999999-77777777-66666666-77777777-999999999-|
A|-77777777-44444444-55555555-77777777-77777777-44444444-55555555-777777777-|
E|-55555555----------------------------55555555-----------------------------|

Intro 2	(guitar 1)
e|-------------------------------|
B|-------------------------------|
G|---------6------7-------9------|
D|-7-------6------7-------9------|
A|-7-------4------5-------7------|
E|-5-----------------------------|
	(guitar 2)
e|------------------------------------|
B|------------------------------------|
G|-9--7-6--9--7-6--9--7-6--4-6--------|
D|-----------------------------7/-----|
A|------------------------------------|
E|------------------------------------|

Chorus 	(both guitars)
e|-------------------------------------------------------------|
B|-------------------------------------------------------------|
G|----------7777777-----------xx7xx7xx7xx7----------77777777---|
D|-77777777-7777777-4444-2222-xx7xx7xx7xx7-77777777-77777777---|
A|-77777777-5555555-4444-2222-xx5xx5xx5xx5-77777777-55555555---|
E|-55555555---------2222-0000--------------55555555------------|
Chorus cont
e|---------------------------------------|
B|---------------------------------------|
G|-----------xx7xx7xx7xx7-99999999-------|
D|-4444-2222-xx7xx7xx7xx7-99999999-------|
A|-4444-2222-xx5xx5xx5xx5-77777777-------|
E|-2222-0000-----------------------------|

Bridge	(guitar 1) (guitar two just plays verse chords)
e|------------------------------------------------------------|
B|------------------------------------------------------------|
G|-14-14-14-14--13-13-13-13--11-11-11-11--13-13-13-13---------|
D|-x--x--x--x---x--x--x--x---x--x--x--x---x--x--x--x----------|
A|-12-12-12-12--11-11-11-11--9--9--9--9---11-11-11-11---------|
E|------------------------------------------------------------|
Bridge part 2
e|------------------------------------------------------------|
B|------------------------------------------------------------|
G|-14-14-14-14--16-16-16-16--19-19-19-19--16-16-16-16---------|
D|-x--x--x--x---x--x--x--x---x--x--x--x---x--x--x--x----------|
A|-12-12-12-12--14-14-14-14--17-17-17-17--14-14-14-14---------|
E|------------------------------------------------------------|

It’s all there just figure out when palm muted etc it’s really simple
enjoy and don’t forget to rate

e-mail – [email protected]

[email protected]==============


Текст, аккорды и табулатура для песни "Living Dead", исполняет "Mest".
Используемые в песне аккорды можно найти в разделе Как брать аккорды. Аккорды для шестиструнной гитары. Другие песни можно найти на нашем сайте, воспользовавшись алфавитным указателем вверху страницы.


Слушать онлайн Living Dead


MestLiving Dead на Яндекс.Музыке


 
Ошибка в тексте? Выделите ошибку и нажмите Ctrl+Enter