Estimados amigos(as) guiтаrrнsтаs:
Le garantizo el 100% de los sonido y la cantidad de los traste en йsта саnсiуn.
Favor de aplicar todas las тйсniсаs que se hace notar debajo de los trastes si
йsта la posee, para аsн no eliminar los elementos que con lleva йsте tablero.
Cualquier соrrессiуn o error, favor de насйrmеlо saber a тrаvйs de йsта dirессiуn
de correo еlестrуniсо, [email protected]

LEYENDA:

(/)  =  Slide Ascendente
()  =  Slide Descendente  
(h)  =  Hammer
(p)  =  Pull Off
(x)  =  Mute Breve (Palma Izquierda)
(H)  =  Hold
(PM) =  Palm Mute

ORDEN:

( Por favor, siga la secuencia del tablero; еsтбn ordenados como es la саnсiуn ).

MODO:

Las posiciones de las cuerdas en la guitarra de modo Еsтбndаr; (e)(B)(G)(D)(A)(E).


Intro  A:  (  Gtr. 1  )
e  ---------------------------------------------------------------------------
B  ---------------------------------------------------------------------------
G  ---------------------------------------------------------------------------
D  -----4-4----4-4----4-4-----4-4---------------------------------------------
A  --2-2---2------2-----------------------------------------------------------
E  ---------0-0----4-4---4-2-2---2-6------------------------------------------X4

Intro  B:  (  Gtr. 2  )
e  ---------------------------------------------------------------------------
B  ---------------------------------------------------------------------------
G  --/(11)--8-6-4--6/8-6-6h8p6--/(11)--8-6-4-6-8-8-8-8/98-6-6h8p6------------
D  ---------------------------------------------------------------------------
A  ---------------------------------------------------------------------------
E  ---------------------------------------------------------------------------X1

Interlude  A:  (  Gtr. 1  )
e  ---------------------------------------------------------------------------
B  ---------------------------------------------------------------------------
G  ---------------------------------------------------------------------------
D  -----4-4----4-4-----4-4-----4-4--------------------------------------------
A  --2-2---2------------------------------------------------------------------
E  ---------2-2---2-0-0---0-2-2---2-------------------------------------------X3

Interlude  B:  (  Gtr. 1  )
e  ---------------------------------------------------------------------------
B  ---------------------------------------------------------------------------
G  ---------------------------------------------------------------------------
D  ---4-4-4-4-4-4-4-4-2-4-----------------------------------------------------
A  --2---4---2---4----2-4-----------------------------------------------------
E  --2---2---0---2----0-2-----------------------------------------------------X1

Interlude  C:  (  Gtr. 2  )
e  ---------------------------------------------------------------------------
B  ---------------------------------------------------------------------------
G  ---------------------------------------------------------------------------
D  --4------------------------------------------------------------------------
A  --x------------------------------------------------------------------------
E  --2(H)---------------------------------------------------------------------X1

Riff  A:  (  Gtr. 2  )
e  ---------------------------------------------------------------------------
B  ---------------------------------------------------------------------------
G  ---------------------------------------------------------------------------
D  --44444444-----------------------------------------------------------------
A  --22222222-22222222-66666666-44444444-666666666666-44444444----------------
E  -----------00000000-44444444-22222222-444444444444-22222222----------------X1
(PM ..........................................................)

Riff  B:  (  Gtr. 1  )
e  ---------------------------------------------------------------------------
B  ---------------------------------------------------------------------------
G  ---------------------------------------------------------------------------
D  ---------------------------------------------------------------------------
A  --66-6-66-6-44-4-44-4------------------------------------------------------
E  --44-4-44-4-22-2-22-2------------------------------------------------------X1
(PM.....................)

Riff  C: 
e  ---------------------------------------------------------------------------
B  ---------------------------------------------------------------------------
G  --44444444-----------------------------------------------------------------
D  --44444444-00000000-66666666-44444444--------------------------------------
A  --22222222-22222222-66666666-44444444--------------------------------------
E  -----------22222222-44444444-22222222--------------------------------------X3

Outro  A:  
e  ---------------------------------------------------------------------------
B  ---------------------------------------------------------------------------
G  --44444444-----------------------------------------------------------------
D  --44444444-00000000-6-666-6-666-44444444-22222222-44444444-----------------
A  --22222222-22222222-6-666-6-666-44444444-22222222-44444444-----------------
E  -----------22222222-4-444-4-444-22222222-00000000-22222222-----------------X1
                        (PM)  (PM)

Outro  B:
e  ---------------------------------------------------------------------------
B  ---------------------------------------------------------------------------
G  ---------------------------------------------------------------------------
D  --44444444-----------------------------------------------------------------
A  --22222222-22222222-66666666-44444444--------------------------------------
E  -----------00000000-44444444-22222222--------------------------------------X2
(PM ....................................)

Outro  C:
e  ---------------------------------------------------------------------------
B  ---------------------------------------------------------------------------
G  --44444444-----------------------------------------------------------------
D  --44444444-00000000-66666666-44444444-6-666666666666-----------------------
A  --22222222-22222222-66666666-44444444-6-666666666666-----------------------
E  -----------22222222-44444444-22222222-4-444444444444-----------------------X1
                                          (PM .........)

(  Riff  C  )

(  Outro  A  )

Interlude  D:  
e  ---------------------------------------------------------------------------
B  ---------------------------------------------------------------------------
G  --4------------------------------------------------------------------------
D  --4-4-4-6-6-4-4-22222222-44444444------------------------------------------
A  --2-4-4-6-6-4-4-22222222-44444444------------------------------------------
E  ----2-2-4-4-2-2-00000000-22222222------------------------------------------X4

Solo  A:
e  ---------------------------------------------------------------------------
B  ----------------------------------------------------------------xxxx-------
G  --/(11)--8-6-4--6/8-6-6h8p6--/(11)--8-6-4-6-8-8-8-8/98-6-6h8p6-xxxx-------
D  ---------------------------------------------------------------------------
A  ---------------------------------------------------------------------------
E  ---------------------------------------------------------------------------X1

Solo  B:
e  ---------------------------------(12)(12)(11)------------------------------
B  --(12)x(14)(14)x(12)(12)(11)(11)-(12)(12)(12)(12)(12)(12)(11)(11)(12)(14)--
G  --(11)x(11)(11)x(11)(11)(11)(11)-------------(13)(13)(13)(11)(11)(11)(11)--
D  ---------------------------------------------------------------------------
A  ---------------------------------------------------------------------------
E  ---------------------------------------------------------------------------X1

Solo  C:
e  ---------------------------------(12)(12)(12)------------------------------
B  --(12)x(14)(14)x(12)(12)(11)(11)-(12)(12)(11)(12)(12)(14)(12)(12)(12)(12)--
G  --(11)x(11)(11)x(11)(11)(11)(11)-------------(13)(13)(13)------------------
D  ---------------------------------------------------------------------------
A  ---------------------------------------------------------------------------
E  ---------------------------------------------------------------------------X1

(  Intro  A  )

(  Riff  C  )

(  Outro  A  )


Bueno, eso es todo.  Les deseo mucha suerte! y que viva el Punk y el Rock!.
O.K.


Текст, аккорды и табулатура для песни "Drawing Board", исполняет "Mest".
Используемые в песне аккорды можно найти в разделе Как брать аккорды. Аккорды для шестиструнной гитары. Другие песни можно найти на нашем сайте, воспользовавшись алфавитным указателем вверху страницы.


Слушать онлайн Drawing Board


MestDrawing Board на Яндекс.Музыке


 
Ошибка в тексте? Выделите ошибку и нажмите Ctrl+Enter