Mest- Chelsea
Tabbed by Winnie Chan 

Intro:
e----------------------------------
b----------------------------------
g---------------4----4----4--------
d----2----4----4----4----4---------
a---2----4----2----1---------------
E--0----2---------------4----------  2x

e-----------------------------------------------------
b-----------------------------------------------------
g-----------------------4-----------------------------
d----4--------2----4----4-(8x)--4-------x-------------
a---4--------2----4-----2-------4-(4x)--x-(6x)--------
E--2--------0----2--------------2-------x-------------

Verse 1: 
e------------------------------------------------------------
b------------------------------------------------------------
g--(4)x-x-x--4---(4)x-x-x--4---------------------------------
d--(4)x-x-x--4---(4)x-x-x--4---(6)x-x-x--6---(6)x-x-x--6-----
a--(2)x-x-x--2---(1)x-x-x--1---(6)x-x-x--6---(6)x-x-x--6-----
E------------------------------(4)x-x-x--4---(4)x-x-x--4-----

e------------------------------------------------------------
b------------------------------------------------------------
g------------------------------------------------------------
d--(2)x-x-x--2---(2)x-x-x--2---(4)x-x-x--4---(4)x-x-x--4-----
a--(2)x-x-x--2---(2)x-x-x--2---(4)x-x-x--4---(4)x-x-x--4-----
E--(0)x-x-x--0---(0)x-x-x--0---(2)x-x-x--2---(2)x-x-x--2-----  4x

Chorus 1:
e----------------------------------------------------
b----------------------------------------------------
g----------------------4---------4-------------------
d--2---------4---------4-(4x)----4-(4x)----6---------
a--2-(8x)----2-(8x)----2---------1---------6-(8x)----
E--0---------2-----------------------------4---------  2x

e----------------------------------------------------
b----------------------------------------------------
g-----------------------------4----------------------
d—-4--------2--------4--------4-(12x)---4-------------
a--4-(4x)---2-(8x)---4-(8x)---2---------4-(12x)-------
E—-2--------0--------2------------------2-------------

Verse 2:
e-------------------------------------
b-------------------------------------
g--4---3---1---1---1---3---3---3------
d-------------------------------------
a-------------------------------------
E-------------------------------------  2x

e---------------------------------------------------------
b---------------------------------------------------------
g--(4)x-------(4)x----------------------------------------
d--(4)x-(6x)--(4)x-(6x)--(6)x--------(2)x---------4-------
a--(2)x-------(1)x-------(6)x-(12x)--(2)x-(12x)---4-(12x)-
E------------------------(4)x--------(0)x---------2-------  2x

Chorus 2:
e----------------------------------
b----------------------------------
g---------------4----4----4--------
d----2----4----4----4----4---------
a---2----4----2----1---------------
E--0----2---------------4----------  

e----------------------------------------------------
b----------------------------------------------------
g---------------4---------4--------------------------
d----2-----4----4-(4x)----4-(4x)----6--------4-------
a---2-----2-----2---------1---------6-(4x)---4-(4x)--
E--0-----2--------------------------4--------2------- 

e--------------------------
b--------------------------
g--------------------------
d—-2--------4--------------
a--2-(8x)---4-(8x)---------
E—-0--------2--------------

Outro solo:
e--------------------------------------------------------
b--------------------------------------------------------
g--------------------------------------------------------
d-----------------8--9--8--8--6--6-----6-----------------
a--------6--9--9--------------------9-----9--------6-----
E--7--7--------------------------------------9--9-----7--  2x


Текст, аккорды и табулатура для песни "Chelsea", исполняет "Mest".
Используемые в песне аккорды можно найти в разделе Как брать аккорды. Аккорды для шестиструнной гитары. Другие песни можно найти на нашем сайте, воспользовавшись алфавитным указателем вверху страницы.


Слушать онлайн Chelsea


MestChelsea на Яндекс.Музыке


 
Ошибка в тексте? Выделите ошибку и нажмите Ctrl+Enter