Intro:
e|--------------------------------------|
B|--------------------------------------|
G|--5--5--------------------------------|
D|--5--5----4-----3--3---4--------------|
A|--3--3----4-----3--3---4--------------|
E|----------2-----1--1---2--------------|

Verse: pm
e|------------------------------------|
B|------------------------------------|
G|--5---------------------------------|
D|--5-----5-----7----3----------------|x8 each
A|--3-----5-----7----3----------------|
E|--------3-----5----1----------------|

e|---------------------------------------|---------------------------------|
B|---------------------------------------|---------------------------------|
G|----5----------------------------------|---------------------------------|
D|-o--5-----5---5-----7---7---7----3--o--|----5---the build up to chorus---|
A|-o--3-----5---5-----7---7---7----3--o--|----5-------(8x)-----------------|
E|----------3---3-----5---5---5----1-----|----3----------------------------|

Bridge:
e|------|--------------------------------|
B|------|--------------------------------|
G|------|------5-------------------------| 8x each i believe
D|--5---|-o----5-----5----3----5-----o---|
A|--5---|-o----3-----5----3----5-----o---|
E|--3---|------------3----1----3---------|


i think thats all there is..this is my first tab.....[email protected]
Mest owns


Текст, аккорды и табулатура для песни "Cadillac", исполняет "Mest".
Используемые в песне аккорды можно найти в разделе Как брать аккорды. Аккорды для шестиструнной гитары. Другие песни можно найти на нашем сайте, воспользовавшись алфавитным указателем вверху страницы.


Слушать онлайн Cadillac


MestCadillac на Яндекс.Музыке


 
Ошибка в тексте? Выделите ошибку и нажмите Ctrl+Enter