2000 Miles Tab by Mest, www.Ultimate-Guitar.Com

Artist: Mest
Title: 2000 miles,
tabbed by: Jordan Rush

I looked at the other tab on this site for this song and it was completly wrong
so now Mest lovers can have a 100% correct fully tabed version of 2000 Miles

PM:PALM MUTED
DT:DISTORTED
[]:LET RING
//: SLide

INTRO/VERSE
e----------------------------------------------------------------------|
B----------------------------------------------------------------------|
G--5-55-5-55-----------------------------------------------------------|
D--5-55-5-55-5-55-5-55-7-77-5-55-3-33----3----[5]----------------------|
A--3-33-3-33-5-55-5-55-7-77-5-55-3-33-2x-3-8x-[5]----------------------|
E------------3-33-3-33-5-55-3-33-1-11----1----[3]----------------------|
  PM______________________________________

CHORUS 1
e----------------------------------------------------------------------|
B----------------------------------------------------------------------|
G-5--------------------------------------------------------------------|
D-5-3x-5----3----5----7----5----3----[5]-------------------------------|
A-3----5-3x-3-3x-5-3x-7-3x-5-3x-3-3x-[5]-------------------------------|
E------3----1----3----5----3----1----[3]-------------------------------|
  DT____________________________________

VERSES
e----------------------------------------------------------------------|
B----------------------------------------------------------------------|
G--5----------------------------5--------------------------------------|
D--5-8x-5----7----5----3----[5]-5-8x-5----7----5----[3]-3-3-3----------|
A--3----5-8x-7-8x-5-8x-3-8x-[5]-3----5-8x-7-8x-5-8x-[3]-3-3-3-3x-------|
E-------3----5----3----1----[3]------3----5----3----[1]-1-1-1----------|
  PM_______________________ DT________________________________

CHORUS 1

BRIDGE
e-----------------------------------------------------------------------|
B-----------------------------------------------------------------------|
G-----------------------------------------------------------------------|
D-3-8x-//-10-8x--7----3----3-8x-//-10-8x--7----3----3-3-3-3-5-5-5-5-----|
A----------------7-8x-3-8x----------------7-8x-3-8x-3-3-3-3-5-5-5-5-----|
E----------------5----1-------------------5----1----1-1-1-1-3-3-3-3-----|

CHORUS 2
e-----------------------------------------------------------------------|
B-----------------------------------------------------------------------|
G-5--------------------------------5------------------------------------|
D-5-3x-----5--------7----5----3----5-8x-5----3----5----7----5----3------|
A-3--------5-3x-----7-8x-5-8x-3-8x-3----5-8x-3-8x-5-8x-7-8x-5-8x-3-8x---|
E----------3--------5----3----1---------3----1----3----5----3----1------|

CHORUS 1 2x

END ON
e------------------------------------------------------------------------|
B------------------------------------------------------------------------|
G-[5]--------------------------------------------------------------------|
D-[5]--------------------------------------------------------------------|
A-[3]--------------------------------------------------------------------|
E------------------------------------------------------------------------|

Alright there is the tab email me at [email protected] if you have any questions or 
just want to send me some punk tabs. Peace!


Текст, аккорды и табулатура для песни "2000 Miles", исполняет "Mest".
Используемые в песне аккорды можно найти в разделе Как брать аккорды. Аккорды для шестиструнной гитары. Другие песни можно найти на нашем сайте, воспользовавшись алфавитным указателем вверху страницы.


Слушать онлайн 2000 Miles


Mest2000 Miles на Яндекс.Музыке


 
Ошибка в тексте? Выделите ошибку и нажмите Ctrl+Enter