Mercyful Fate - Time
Submitted By: Anavrin
EMail: [email protected]
For the tab contest.


Intro
e-----10-8----8--------10-8----8--------10-8----8-------------
B--8-------11---10--8-------11---10--8-------11---10----------
G--0----------------0----------------0------------------------
D-------------------------------------------------------------
A-------------------------------------------------------------
E-------------------------------------------------------------


Riff 1A (Guitar 1)
e-------------------------------------------------------------
B-------------------------------------------------------------
G-------------------------------------------------------------
D-------------------------------------------------------------
A--10--5---6---9---6---8---10--5---6---9---6---8---5--6--5--
E-------------------------------------------------------------


Riff 1B (Guitar 2)
e-----10-8----8--------10-8----8--------10-8----8---------10--
B--8-------11---10--8-------11---10--8-------11---10---8------
G--0----------------0----------------0-----------------0------
D-------------------------------------------------------------
A-------------------------------------------------------------
E-------------------------------------------------------------

(continued)
e--8----8-------------------------------------10-8----8-------
B----11---10------6-8-6---------8-10-8-----8-------11---10----
G---------------8-------8----10--------10--0------------------
D-------------------------------------------------------------
A-------------6------------8----------------------------------
E-------------------------------------------------------------

(continued)
e--------------------------------10---11---10-----------------
B------6-8-6---------8-10-8-------x----x----x-----------------
G----8-------8----10--------10----7----8----7-----------------
D-------------------------------------------------------------
A--6------------8---------------------------------------------
E-------------------------------------------------------------


Verse A (Guitar 1)
e-------------------------------------------------------------
B-------------------------------------------------------------
G-------------------------------------------------------------
D-------------------------------------------------------------
A--8-10---13---8---10--8--10---8--3---3/5-3-1-3-1-0---8---11-
E-------------------------------------------------------------

(continued)
e-------------------------------------------------------------
B-------------------------------------------------------------
G-------------------------------------------------------------
D-------------------------------------------------------------
A--13---13-15-16-15-13---16---16-15-13-15---15-16---8--6--8---
E-------------------------------------------------------------

(continued)
e-------------------------------------------------------------
B-------------------------------------------------------------
G-------------------------------------------------------------
D-------------------------------------------------------------
A--8--6--8----------------------------------------------------
E-------------------------------------------------------------


Verse B (Guitar 2)
e------------------------------------------------8------------
B-----10-11-13-11-10-----13-11-10-11-------10-11---11-10------
G--12-----------------10-------------12--8--------------------
D-------------------------------------------------------------
A-------------------------------------------------------------
E-------------------------------------------------------------

(continued)
e-------------------------6-8-6----------6--------------------
B--11-10-8--10-8--------8-------8----6-8---8-6--------10-11---
G----------------10---7------------5------------10-12---------
D-------------------------------------------------------------
A-------------------------------------------------------------
E-------------------------------------------------------------

(continued)
e-------------------------------------------------------------
B--10-----11-10-8--10-8---------13-11-10-11--------11-10------
G-----12----------------10---10-------------12--10-------10---
D-------------------------------------------------------------
A-------------------------------------------------------------
E-------------------------------------------------------------

(continued)
e-------------------------------------------------------------
B--11-10-----13-11-10-11-10-----11-13-11-10------10-11-13-----
G---------10-----------------10--------------10------------10-
D-------------------------------------------------------------
A-------------------------------------------------------------
E-------------------------------------------------------------

(continued)
e-----------------------------------8-------------------------
B--13-11-10-------------------------9-------------------------
G------------10-12-13--8-10-12-10--10--10-12-13--8-10-12-10---
D-------------------------------------------------------------
A-------------------------------------------------------------
E-------------------------------------------------------------


Bridge 
e-------------------------------------------------------------
B-------------------------------------------------------------
G-------------------------------------------------------------
D--12--12-10----10-----12--12-10----10-----12--12-10----10----
A--10--------13----12--10--------13----12--10--------12----12-
E-------------------------------------------------------------

(continued)
e-------------------------------------------------------------
B-------------------------------------------------------------
G-------------------------------------------------------------
D--12--12-10----10-----8--5-7-8-7-5--10--7-8-10-8-7--12--12---
A--10--------13----12--6--------------8--------------10-------
E-------------------------------------------------------------

(continued)
e-------------------------------------------------------------
B-------------------------------------------------------------
G-------------------------------------------------------------
D--10----10-----12--12-10----10-----8--5-7-8-7-5--10--7-8-10--
A-----13----12--10--------13----12--6--------------8----------
E-------------------------------------------------------------

(continued)
e-------------------------------------------------------------
B-------------------------------------------------------------
G-------------------------------------------------------------
D--8-7--------------------------------------------------------
A-------5--6--5-----------------------------------------------
E-------------------------------------------------------------


Solo 1A (Guitar 1)
e-------------------------------------------------------------
B-------------------------------------------------------------
G--12--/-15---10---12--10--12---15---10---12--10--15---13----
D--12--/-15---10---12--10--12---15---10---12--10--15---13----
A--10--/-13----8---10---8--10---13----8---10---8--13---11----
E-------------------------------------------------------------

(continued)
e-------------------------------------------------------------
B-------------------------------------------------------------
G--15-----------15---13---------------------------------------
D--15--4--4-4---15---13---------------------------------------
A--13--4--4-4---13---11---------------------------------------
E------2--2-2-------------------------------------------------


Solo 1B (Guitar 2)
e-------------------------------------------------------------
B-------------------------------------------------------------
G----7--8--7v---7-3h5p3p0--2-h3p0--3-2---2-0---5-7-8-7--5-7---
D--------------------------------------3----------------------
A--5----------------------------------------------------------
E-------------------------------------------------------------

(continued)
e-------------------------------------------------------------
B----------------------11--------11p10------------------------
G--5-8--5h7p5--12v--10-----10h12-------h12--12p10p9h10h12^----
D-------------------------------------------------------------
A-------------------------------------------------------------
E-------------------------------------------------------------

(continued)
e-------------------------------------------------------------
B-------------------------------------------------------------
G--12p10----10------------------------------------------------
D--------12-----12-10-8-7-/8-7-5-/7-5-3-5--8--10-11--8---
A-------------------------------------------------------------
E-------------------------------------------------------------

(continued)
e-------------------------------------------------------------
B----------11v--14^--11h14p11--11h13h14p11-9h11--11--13--14---
G-------------------------------------------------------------
D--10m-8m-----------------------------------------------------
A-------------------------------------------------------------
E-------------------------------------------------------------

(continued)
e--11--13--14--16--18^--16/18^--16---13h14h16p14p1311h13v--
B-------------------------------------------------------------
G-------------------------------------------------------------
D-------------------------------------------------------------
A-------------------------------------------------------------
E-------------------------------------------------------------


Riff 2
e-------------------------------------------------------------
B-------------------------------------------------------------
G--10--10--10--10--10--10--10--10--8--8--8--8--10--10--10--10-
D--10--10--10--10--10--10--10--10--8--8--8--8--10--10--10--10-
A---8---8---8---8---8---8---8---8--6--6--6--6---8---8---8---8-
E-------------------------------------------------------------

(continued)
e-------------------------------------------------------------
B-------------------------------------------------------------
G---7---5---7----7---5---7------------------------------------
D---7---5---7----7---5---7------------------------------------
A---5---3---5----5---3---5------------------------------------
E-------------------------------------------------------------


Solo 2A (Guitar 1)
e-------------------------------------------------------------
B-------------------------------------------------------------
G--10--10--10--10--10--10--10--10---12---12---10--10--10--10--
D--10--10--10--10--10--10--10--10---12---12---10--10--10--10--
A---8---8---8---8---8---8---8---8---10---10----8---8---8---8--
E-------------------------------------------------------------

(continued)
e-------------------------------------------------------------
B-------------------------------------------------------------
G--12---12--10--10--10--10--8--8--8--8--10--10--10--10--------
D--12---12--10--10--10--10--8--8--8--8--10--10--10--10--------
A--10---10---8---8---8---8--6--6--6--6---8---8---8---8--------
E-------------------------------------------------------------

(continued)
e-------------------------------------------------------------
B-------------------------------------------------------------
G--7---5---7----7---5---7-------------------------------------
D--7---5---7----7---5---7-------------------------------------
A--5---3---5----5---3---5-------------------------------------
E-------------------------------------------------------------


Solo 2B (Guitar 2)
e-------------------------------------------------------------
B-------------------------------------------------------------
G-------------------------------------------------------------
D-------------------------------------------------------------
A--8--10--11--10--8--11v------11--10--8--6--8--10--11v--------
E-------------------------------------------------------------

(continued)
e---------------------------------------------------13v--13v--
B------------------13^--13^--13^--13--11----------------------
G-----------------------------------------13--12v-------------
D-------------------------------------------------------------
A--11--10--8--10v---------------------------------------------
E-------------------------------------------------------------

(continued)
e-------13v--11v--11v--11v--11v------11-13--13v--13v--11-13---
B---------------------------------13--------------------------
G--10v--------------------------------------------------------
D-------------------------------------------------------------
A-------------------------------------------------------------
E-------------------------------------------------------------

(continued)
e-------------------------------------------------------------
B--11-13------------------10--8--10v-------------------------
G-------------7---5---7---------------------------------------
D-------------7---5---7---------------------------------------
A-------------5---3---5---------------------------------------
E-------------------------------------------------------------


Solo 2C (Guitar 3)
e------------------------------------16-18--18p16-16p14-16p14-
B------------------------------16-----------------------------
G--10--12--13--12--10--13v--13----13--------------------------
D-------------------------------------------------------------
A-------------------------------------------------------------
E-------------------------------------------------------------

(continued)
e--14p13------------------------------------------------------
B---------13-11-----------------------------------------------
G---------------13-12v---10-12-13-12-10-13--15-13-10-12v------
D-------------------------------------------------------------
A-------------------------------------------------------------
E-------------------------------------------------------------


Outro
e-------------------------------------------------------------
B-------------------------------------------------------------
G-------------------------------------------------------------
D-------------------------------------------------------------
A--10--5---6---9---10--5---6---9---10---5---6---9----------
E-------------------------------------------------------------


Intro
Riff 1A, 1B
Verse A, B
Intro
Riff B
Verse A, B
Intro
Bridge, Verse B
Solo A, B
Riff 2
Solo 2A, 2B, 2C
Intro
Intro, Outro


Текст, аккорды и табулатура для песни "Time", исполняет "Mercyful Fate".
Используемые в песне аккорды можно найти в разделе Как брать аккорды. Аккорды для шестиструнной гитары. Другие песни можно найти на нашем сайте, воспользовавшись алфавитным указателем вверху страницы.


 
Ошибка в тексте? Выделите ошибку и нажмите Ctrl+Enter