================================================================================
         Title : Ghost Of Change
        Artist : Mercyful Fate
         Album : Into the Unknown
Transcribed by : Dave Zatuchney  [email protected]
[email protected]===============

Legend
------

 h  = hammer-on
 p  = pull-off
 b  = bend
 r  = bend release
 /  = slide up/down
 = natural harmonic
[5] = artifical harmonic
 ~  = vibrato
 tr = trill



          Riff A/ Play 4x                                    Riff B

E|----|--------------------------------------------------|-||----------
B|----|--------------------------------------------------|-||*---------
G|----|---------------------0--------------------0-------|-||----------
D|----|--------------------------------------------2-1-0-|-||------9---
A|----|------0-1-2----0-1-2---------0-1-2----0-1---------|-||*-----7---
E|-15|-0--0--------0----------0--0--------0-------------|-||--0-0---0-
    


                                                   Riff C

E|----------------------------------------------||-|---|---|---|---|---
B|---------------------------------------------*||-|---|---|---|---|---
G|----------------------------------------------||-|---|---|---|---|---
D|---10-----9---12-12-10-12------9-----10----7--||-|-5-|-4-|-5-|-4-|-5-
A|----8-----7---10-10--8-10------7------8--5-5-*||-|-3-|-2-|-3-|-2-|-3-
E|-0----0-0---0--------------0-0---0-0----------||-|---|---|---|---|---



                                 Play Riff A2x,B2x,C1x      Riff D

E-|---|-----------------|-------------------------------|-||-----------
B-|---|-----------------|-------------------------------|-||*----------
G-|---|-----------------|-------------------------------|-||-----------
D-|-4-|-----------------|-------------------------------|-||-----------
A-|-2-|-3--2--3--2------|-------------------------------|-||*----------
E-|---|-------------3-2-|-------------------------------|-||--0-0--0-0-



                    Riff E

E|---------------||-|----------------------|----------------|----------
B|--------------*||-|----------------------|----------------|----------
G|---------------||-|----------------------|----------------|----------
D|-----------12--||-|----------------------|------------4-2-|----------
A|-----------10-*||-|-0--------------0-2-3-|-0----------2-0-|-0--------
E|--0-0--0-0-----||-|---2--2-2-2-2-2-------|---2--2-2-2-----|---2--2-2-


E|-------------|----------------|----------------------|----------------
B|-------------|----------------|----------------------|----------------
G|-------------|----------------|----------------------|----------------
D|-------------|------------4-2-|------------------0-1-|--------------7-
A|-------0-2-3-|-0----------2-0-|-3-0--0-0-0-0-0-3-----|-0-3-0--0-0-0-5-
E|-2-2-2-------|---2--2-2-2-----|----------------------|----------------



                                                     Riff F

E|-----|----------------------|------------------|-||------------------
B|-----|----------------------|------------------|-||*-----------------
G|-----|----------------------|------------------|-||------------------
D|-5---|-0--------------0-2-3-|---0----------9-7-|-||--4--4-4-2-4--x-x-
A|-3-0-|---2--2-2-2-2-2-------|-2---2--2-2-2-7-5-|-||*-2--2-2-0-2--x-x-
E|-----|----------------------|------------------|-||------------------



                                                Riff G

E|-----------------------------------||-|---|-||-----------------------
B|----------------------------------*||-|---|-||*----------------------
G|-----------------------------------||-|---|-||----7---9---10---9---7-
D|--x-x-x--x--4--4-4-2-4----7----10--||-|---|-||--7---7---7----7---7---
A|--x-x-x--x--2--2-2-0-2--0-5--0--8-*||-|-2-|-||*----------------------
E|-----------------------------------||-|-0-|-||-----------------------


E|--------|--------------------------||-||----------------------------|-
B|--------|-------------------------*||-||*---------------------------|-
G|------7-|---7---9---10---9---------||-||----------------------------|-
D|-7--5-5-|-7---7---7----7---7--7-5--||-||----7---9---10---9---7----7-|-
A|----3---|---------------------5-3-*||-||*-7---7---7----7---7----5-5-|-
E|--------|--------------------------||-||------------------------3---|-


E|--------------------------||-|---------------------------|-----------
B|-------------------------*||-|---------------------------|-----------
G|--------------------------||-|---7---9---10---9---7----7-|---7---9---
D|---7---9---10---9---------||-|-7---7---7----7---7----5-5-|-7---7---7-
A|-7---7---7----7---7--7-5-*||-|-----------------------3---|-----------
E|---------------------5-3--||-|---------------------------|-----------



                                                        End Riff G

E|---------------|---------------------------|-------------------------
B|---------------|---------------------------|-------------------------
G|-10---9--------|---------------------------|-------------------------
D|----7---7--7-5-|---7---9---10---9---7----7-|---7---9---10---9--------
A|-----------5-3-|-7---7---7----7---7----5-5-|-7---7---7----7---7--7-5-
E|---------------|-----------------------3---|---------------------5-3-



              Play Riff F2x,A2x,B2x,C1x

E-|--------------------------------------------------------|---|-------
B-|--------------------------------------------------------|---|-------
G-|--------------------------------------------------------|---|-------
D-|--------------------------------------------------------|---|-------
A-|--------------------------------------------------------|-2-|-------
E-|--------------------------------------------------------|-0-|-------



  Play Riff G1x

E|----------------|--------------------------|------------------------|-
B|----------------|--------------------------|------------------------|-
G|----------------|--------------------------|------------------------|-
D|----------------|---7---9---10---9---7---7-|---7---9---10---9-------|-
A|----------------|-7---7---7----7---7---5-5-|-7---7---7----7---7-7-5-|-
E|----------------|----------------------3---|--------------------5-3-|-



    Play Riff F 2x,D2x     Riff H Play 4x             Riff I Play 14x

E|-----------------------|-----------------|----------------------------
B|-----------------------|-----------------|----------------------------
G|-----------------------|-----------------|-9/10--10/12--1210--109---
D|-----------------------|-----------12-12-|----------------------------
A|-----------------------|-----------10-10-|-7/-8---8/10--10-8---87---
E|-----------------------|-0-0-0-0-0-------|--------------------------0-



                Song End  Gtr 2 Right Side     Riff A

E|------------|-*|------|----------------------|-----------------------
B|------------|-*|------|----------------------|-----------------------
G|------------|-*|------|----------------------|---------------------0-
D|---------12-|-*|------|--------12--11--10--9-|-----------------------
A|---------10-|-*|------|--------10---9---8--7-|------0-1-2----0-1-2---
E|-0-0-0-0----|-*|------|----------------------|-0--0--------0---------


E|----------------------------------------------------------------------
B|----------------------------------------------------------------------
G|--------------------0----------------------------0--------------------
D|----------------------2-1-0-------0-1-2----0-1-2---------0-1-2----0-1-
A|-------0-1-2----0-1---------------------------------------------------
E|--0--0--------0--------------0--0--------0----------0--0--------0-----



               Riff B

E|---------|-||-----------------------------------|--------------------||-
B|---------|-||*----------------------------------|-------------------*||-
G|-0-------|-||-----------------------------------|-----------------4--||-
D|---2-1-0-|-||------9-----10-----9---12-12-10-12-|-----9-----10--0-4--||-
A|---------|-||*-----7------8-----7---10-10--8-10-|-----7------8------*||-
E|---------|-||--0-0---0-0----0-0---0-------------|-0-0---0-0----------||-



  Riff C

E-|------------|-------------|---------------|--------------|----------
B-|------------|-------------|---------------|--------------|----------
G-|-0--2-0-----|-4-2---------|---------------|--------------|----------
D-|--------4---|-----5-4-5-4-|-2--4-5-4--2-0-|-5-4-2-1------|----------
A-|----------2-|-------------|---------------|----------3-2-|----------
E-|------------|-------------|---------------|--------------|----------



Play Riff A1x,B2x,C1x       Riff D

E|--------------------|-||-------------------------||-|----------------
B|--------------------|-||*-----------------------*||-|----------------
G|--------------------|-||-------------------------||-|----------------
D|--------------------|-||---------------------12--||-|----------------
A|--------------------|-||*--------------------10-*||-|----------------
E|--------------------|-||--0-0--0-0--0-0--0-0-----||-|----------------



Play Riff E1x,F2x(From Gtr 1 Riffs)         Riff E1 Play 4x      Riff G

E|---------------------------------|---|-||---------|-------||-||------
B|---------------------------------|---|-||*--------|------*||-||*-----
G|---------------------------------|---|-||---------|-------||-||------
D|---------------------------------|---|-||--5-7----|-7--5--||-||------
A|---------------------------------|-2-|-||*-3-5----|-5--3-*||-||*-0-0-
E|---------------------------------|-0-|-||---------|-------||-||------


E|-------------------------|-----------------------||-|----------------
B|-------------------------|----------------------*||-|----------------
G|-------------------------|-----------------------||-|----------------
D|-----------------------7-|-----------------------||-|-0-0-0-0--0-0-0-
A|-0-0--0-0-0-0--0-0-0-5-5-|-0-0-0-0--0-0-0-0-7-5-*||-|----------------
E|---------------------3---|------------------5-3--||-|----------------


E|--------------|----------------------|-----------------------------|-
B|--------------|----------------------|-----------------------------|-
G|------------7-|----------------------|-----------------------------|-
D|-0--0-0-0-5-5-|-0-0-0-0--0-0-0-0-7-5-|---------------------------7-|-
A|----------3---|------------------5-3-|-0-0-0-0--0-0-0-0--0-0-0-5-5-|-
E|--------------|----------------------|-------------------------3---|-



                          Play Riff F2x(From Gtr1 Riffs)

E|----------------------|------------------------------|----|----|------
B|----------------------|------------------------------|----|----|------
G|----------------------|------------------------------|----|----|------
D|----------------------|------------------------------|-12-|-11-|------
A|-0-0-0-0--0-0-0-0-7-5-|------------------------------|-10-|--9-|------
E|------------------5-3-|------------------------------|----|----|-0--0-



                                                   Play Riff B2x,C1x

E|---------------------------------------------|---------------------|-
B|---------------------------------------------|---------------------|-
G|----------------0--------------------0-------|---------------------|-
D|------------------------0-1-2----0-1---2-1-0-|---------------------|-
A|-0-1-2----0-1-2------------------------------|---------------------|-
E|--------0----------0--0--------0-------------|---------------------|-



        Play Riff E1 4x,G1x,Riff F(From Gtr1)2x

E--|---|-------------------------------------------|-------------------
B--|---|-------------------------------------------|-------------------
G--|---|-------------------------------------------|-------------------
D--|---|-------------------------------------------|-------------------
A--|-2-|-------------------------------------------|---------------
E--|-0-|-------------------------------------------|-0-0------0-0--0-0-


E|----------------|-------------------------------|-||------------------
B|----------------|-------------------------------|-||*-----------------
G|----------------|-------------------------------|-||------------------
D|----------12-12-|----------------------------12-|-||------------12-12-
A|------10-10-|--------------------10-|-||*-----------10-10-
E|------0-0-------|-0-0------0-0--0-0------0-0----|-||--0-0-0-0-0-------



                        Riff H Play 14x

E|------------------||-|--------------------------------------------|-*|-
B|-----------------*||-|--------------------------------------------|-*|-
G|------------------||-|----------------9--9/10--10/12--1210--109-|-*|-
D|-----------15-15--||-|--------------------------------------------|-*|-
A|-----------13-13-*||-|----------------7--7/-8---8/10--10-8---87-|-*|-
E|-0-0-0-0-0--------||-|-0-0-0-0--0-0-0-----------------------------|-*|-



 NOTE:Gtr1 is out of tune @ Riff A @ song start!Low E String is slightly flat!

E|-----------------------------------------------------------
B|-----------------------------------------------------------
G|-----------------------------------------------------------
D|-----------------------------------------------------------
A|-----------------------------------------------------------
E|-----------------------------------------------------------


Текст, аккорды и табулатура для песни "Ghost Of Change", исполняет "Mercyful Fate".
Используемые в песне аккорды можно найти в разделе Как брать аккорды. Аккорды для шестиструнной гитары. Другие песни можно найти на нашем сайте, воспользовавшись алфавитным указателем вверху страницы.


 
Ошибка в тексте? Выделите ошибку и нажмите Ctrl+Enter