-----------------------------------------------------------------------------
                 MY SMALL PERCENT SHOWS MOST - Melvins
-----------------------------------------------------------------------------

Tabbed by an17nin17
Email - [email protected]

Standard Tuning - E, A, D, G, B, E

Intro

|--------------------|-----------------------------|-----|----------|
|--------------------|-----------------------------|-----|----------|
|--------------------|-----------------------------|-----|----------|
|--------------------|-----------------------------|-2~~-|-5--------|
|-------3-3-5^-3-----|-5-----3---3-------3---3---3-|-2~~-|-5--------|
|-3-5~~----------5~~-|-3-5-5---5---5-5-5---5---5---|-0~~-|-3--|
                         PM...   PM                        | Play x 4

Verse
                             1|             2|
|---------|-------------------|--------------|
|---------|-------------------|--------------|
|---------|-------------------|--------------|
|-2-2-5-5-|-------------------|--------------|
|-0-0-3-3-|---3---3---3-0---0-|-2-2-3-2-/8-6-|
|---------|-3---3---3-----3---|-0-0-1-0-/6-4-|

Chorus

|------------------------------------|----------------------------------|
|------------------------------------|----------------------------------|
|------------------------------------|----------------------------------|
|------------------------------------|----------------------------------|
|---7---7----8-8-7-7-10104-4-5-5-6-6-|----------------|
|-5---5---6--6-6-5-5-8-8-2-2-3-3-4-4-|-------------|
  Play x 2
      PM............................................................... |
  Play x 2             

|--------------------------|
|--------------------------|
|--------------------------|
|--------------------------|
|-


Текст, аккорды и табулатура для песни "My Small Percent Shows Most", исполняет "Melvins".
Используемые в песне аккорды можно найти в разделе Как брать аккорды. Аккорды для шестиструнной гитары. Другие песни можно найти на нашем сайте, воспользовавшись алфавитным указателем вверху страницы.


 
Ошибка в тексте? Выделите ошибку и нажмите Ctrl+Enter