-----------------------------------------------------------------------------
                         LOVE THING - Melvins
-----------------------------------------------------------------------------

Tabbed by an17nin17
Email - [email protected]

Standard Tuning - E, A, D, G, B, E 

Intro 
Guitar 1 
|-----------------|-----------------------------| 
|-----------------|-----------------------------| 
|-------6-6h7-6~~-|-------6-6h7-7-6-------------| 
|-----7-----------|-----7-----------7-6---------| 
|---7-------------|---7-----------------7-6-6-7-| 
|-0---------------|-0---------------------------| 
|Guitar 2 
|-----------------|-----------------------------| 
|-----------------|-------------7-7-------------| 
|-----------------|---------6-9-----6-9---------| 
|-----------------|---------------------7-6-6-7-| 
|-----------------|-2-2-------------------------| 
|-----------------|-0-0-------------------------| 

Verse 
Guitar 1 
|-----------------|-----------------------------| 
|-----------------|-----------------------------| 
|-------6-6h7-6~~-|-------6-6h7-7-6-------------| 
|-----7-----------|-----7-----------7-6---------| 
|---7-------------|---7-----------------7-6-6-7-| 
|-0---------------|-0---------------------------| 
|Guitar 2 
|-----------------|-----------------------------| 
|---------5h7-5~~-|---------7p5-----------------| 
|-----6-9---------|-----6-9-----7-6-------------| 
|---7-------------|---7-------------7-6---------| 
|-0---------------|-0-------------------7-6-6-7-| 
|-----------------|-----------------------------| 

Guitars Tacet 

|-------------------------------| 
|-------------------------------| 
|-------------------------------| 
|-----2---3---4---5---7---8---9-| 
|--0---1---2---3---5---6---7-| 
|-------------------------------| 

Guitar 1 
|-----------------|-----------------------------| 
|-----------------|-----------------------------| 
|-------6-6h7-6~~-|-------6-6h7-7-6-------------| 
|-----7-----------|-----7-----------7-6---------| 
|---7-------------|---7-----------------7-6-6-7-| 
|-0---------------|-0---------------------------| 
|Guitar 2 
|-----------------|-----------------------------| 
|---------5h7-5~~-|---------7p5-----------------| 
|-----6-9---------|-----6-9-----7-6-------------| 
|---7-------------|---7-------------7-6---------| 
|-0---------------|-0-------------------7-6-6-7-| 
|-----------------|-----------------------------| 
Play x 2 

Chorus 

|--------------------------------------------------------| 
|---------------------------------------------------------| 
|--------------------------------------------------------------------| 
|--------------------------------------------------------------------| 
|-10--9-5~~-2-------------10--9-5~~-2----------------------10--9-5~~-| 
|-8---7-3~~-0-------------8---7-3~~-0----------------------8---7-3~~-| 

Guitar 1 
|---------------------------| 
|---------------------------| 
|---------------------------| 
|-7-7^-7^-7^-7^-8p7p0-8p7p0-| 
|---------------------------| 
|---------------------------| 
|Guitar 2 
|---------------------------| 
|---------------------------| 
|---------------------------| 
|---------------------------| 
|-2-2---2-2-x-2---2-2---2-2-| 
|-0-0---0-0-x-0---0-0---0-0-| 

Guitar 1 
|-----------------|-----------------------------| 
|-----------------|-----------------------------| 
|-------6-6h7-6~~-|-------6-6h7-7-6-------------| 
|-----7-----------|-----7-----------7-6---------| 
|---7-------------|---7-----------------7-6-6-7-| 
|-0---------------|-0---------------------------| 
|Guitar 2 
|-----------------|-----------------------------| 
|---------5h7-5~~-|---------7p5-----------------| 
|-----6-9---------|-----6-9-----7-6-------------| 
|---7-------------|---7-------------7-6---------| 
|-0---------------|-0-------------------7-6-6-7-| 
|-----------------|-----------------------------| 
Play x 4 

|---| 
|---| 
|---| 
|---| 
|-2-| 
|-0-|

Contact me if you have any comments about this tab.


Текст, аккорды и табулатура для песни "Love Thing", исполняет "Melvins".
Используемые в песне аккорды можно найти в разделе Как брать аккорды. Аккорды для шестиструнной гитары. Другие песни можно найти на нашем сайте, воспользовавшись алфавитным указателем вверху страницы.


Слушать онлайн Love Is the Sweetest Thing


Mel TorméLove Is the Sweetest Thing на Яндекс.Музыке


 
Ошибка в тексте? Выделите ошибку и нажмите Ctrl+Enter