-----------------------------------------------------------------------------
                   LET GOD BE YOUR GARDENER - Melvins
-----------------------------------------------------------------------------

Tabbed by an17nin17
Email - [email protected]

Drop D Tuning - D, A, D, G, B, E

Intro

|---------------------------------------|-----------------------------|
|---------------------------------------|-----------------------------|
|---------------------------------------|-----------------------------|
|---6-5---5-4----4-3---3-4----4-5---5-6-|---6-5---6-5-----6-5-----6-5-|
|-5-----4------3-----2------3-----4-----|-5-----5-----5-5-----5-5-----|
|---------------------------------------|-----------------------------|
PM................................................................... |
  Play x 3                              |

|-------------------------------|--------------------------------|
|-------------------------------|--------------------------------|
|-7-7-7-6-5-6-6-6-5-4-5-5-5-4-5-|-5-5-5-4-5-5-5-4-5-5-5-4-5-5-5-|
|-7-7-7-6-5-6-6-6-5-4-5-5-5-4-5-|-5-5-5-4-5-5-5-4-5-5-5-4-5-5-5-|
|-5-5-5-4-3-4-4-4-3-2-3-3-3-2-3-|-3-3-3-2-3-3-3-2-3-3-3-2-3-3-3-|
|-------------------------------|--------------------------------|
  Play x 2                      |

                                  1|              2,4|    3,5|
|-----------------|----------------|-----------------|-------|
|-----------------|----------------|-----------------|-------|
|-----------------|-5-5-5-4-5-5-5-|-----------------|-----5-|
|-3~~-0-3~~-0-3-0-|-5-5-5-4-5-5-5-|-4-3-0-3~~-0-0-0-|-4-3-5-|
|-3~~-0-3~~-0-3-0-|-3-3-3-2-3-3-3-|-4-3-0-3~~-0-0-0-|-4-3-3-|
|-3~~-0-3~~-0-3-0-|----------------|-4-3-0-3~~-0-0-0-|-4-3---|
                                               PM.........

|-----------------------------------------------------------|
|-----------------------------------------------------------|
|-----------------------------------------------------------|
|-5-4-3-----------------------------------------------------|
|-3-2-1-~~-3-0-|
|-------~~-3-0-|

|-------------------------------------------------------|
|-------------------------------------------------------|
|-------------------------------------------------------|
|-3-3--4-4-4--4-|
|-3-3--4-4-4--4-|
|-3-3--4-4-4--4-|
 
Verse
                                            1,2,3|                      4|
|-------|----------------------------------------|-----------------------|
|-------|----------------------------------------|-----------------------|
|-------|----------------------------------------|-----------------------|
|-------|-3--3--1-2--3-3-3-3-3-3-3-4-4-4-4-4-4-4-|---5-4-3-5-4-3-2-1-3-2-|
|---3---|-3--3--1-2--3-3-3-3-3-3-3-6-6-6-6-6-6-6-|---5-4-3-5-4-3-2-1-3-2-|
|-1---2-|-3--3--1-2--3-3-3-3-3-3-3-4-4-4-4-4-4-4-|-3-5-4-3-5-4-3-2-1-3-2-|

Chorus

|-------------------------------------------|
|-------------------------------------------|
|-------------------------------------------|
|-2-0-1-2-1-3-2-1-5-4-3-5-4-3-5-4-3-2-1-3-2-|
|-2-0-1-2-1-3-2-1-5-4-3-5-4-3-5-4-3-2-1-3-2-|
|-2-0-1-2-1-3-2-1-5-4-3-5-4-3-5-4-3-2-1-3-2-|
          PM.........................................................
  Play x 2

|-------------------------------------------|
|-------------------------------------------|
|-------------------------------------------|
|-2-0-1-2-1-3-2-1-1-2-1-3-2-1-1-2-1-2-1-2-1-|
|-2-0-1-2-1-3-2-1-1-2-1-3-2-1-1-2-1-2-1-2-1-|
|-2-0-1-2-1-3-2-1-1-2-1-3-2-1-1-2-1-2-1-2-1-|

Outro

|----------------------------------------------------------------------|
|----------------------------------------------------------------------|
|----------------------------------------------------------------------|
|-2-2--3--3-3------------3------|
|-4-4--3--3-3--------3---3----6-|
|-2-2--3--3-3--3/--1---2-3--5---|
      
|-------|---------------------------------------| 
|-------|---------------------------------------| 
|-------|---------------------------------------| 
|---7~~-|---6-5---5-4----4-3---3-4----4-5---5-6-| 
|---7~~-|-5-----4------3-----2------3-----4-----| 
|-6-7~~-|---------------------------------------|

Contact me if you have any comments about this tab.


Текст, аккорды и табулатура для песни "Let God Be Your Gardener", исполняет "Melvins".
Используемые в песне аккорды можно найти в разделе Как брать аккорды. Аккорды для шестиструнной гитары. Другие песни можно найти на нашем сайте, воспользовавшись алфавитным указателем вверху страницы.


 
Ошибка в тексте? Выделите ошибку и нажмите Ctrl+Enter