Your Life Is Now
Written by John Mellencamp & George M Greene
Transcribed By Ty Sadorsky [email protected]


[Intro] [Guitar 1 Acoustic] Play 2x
e||------------------|-----------------|------------------|--------------3--|
B||------------------|-----------------|------------------|--------------3--|
G||------------------|------^--0-0-----|------------------|-----0-----0-----|
D||----0-(2)-/-4---2-|-(2)-0-3-----3-0-|----0-(2)-/-4--2--|-(2)----3--------|
A||----2-(3)-/-5---3-|-(3)-------------|----2-(3)-/-5--3--|-(3)-------------|
E||-3----------------|-----------------|-3----------------|-----------------|
   G                   C                D                  D
[Verse] 
e||------------------|-----------------|------------------|-----------------|
B||------------------|-----------------|---3------3-------|---3----3-3---0--|
G||-(0)--------------|-----------------|---2------2-------|---2----2-2---1--|
D||-(0)--------------|--2------2-------|------------------|-----------------|
A||------------------|--3------3-------|------------------|-----------------|
E||-(3)--------------|-----------------|------------------|-----------------|

 1.  See  the  moon        roll across the  stars

   G                   C                 D                  D 
e||------------------|-----------------|------------------|-----------------|
B||------------------|-----------------|---3------3-------|------3------0---|
G||-(0)--------------|-----------------|---2------2-------|--2-----2----1---|
D||-(0)--------------|--2------2---0---|------------------|----0------------|
A||------------------|--3------3---1---|------------------|-----------------|
E||-(3)--------------|-----------------|------------------|-----------------|

    See the seasons     turn like a     heart

   G                   C                 D                  D
e||------------------|-----------------|------------------|-----------------|
B||------------------|-----------------|---3------3--3----|-----------------|
G||-(0)--------------|-----------------|---2------2----2--|---(2)-----------|
D||-(0)--------------|--2------2---0---|------------------|-----------------|
A||------------------|--3------3---1---|------------------|-----------------|
E||-(3)--------------|-----------------|------------------|-----------------|

  Your fathers days are  lost to   you                          This is your

 
e||---------3---2----|-----------------|-------2—-2-2-2--2|----(2)----------|
B||---------3---3----|--3---1----------|-------3—-3-3-3--3|----(3)----------|
G||------------------|--2---0----------|-------2—-2-2-2--2|----(2)----------|
D||------------------|-----------------|------------------|-----------------|
A||------------------|-----------------|------------------|-----------------|
E||------------------|-----------------|------------------|-----------------|

   Time here   to do     what you will     do--------.           Your life is

As heard on Columbia Records John Mellencamp
1998 John Mellencamp All rights reserved 



   [Chorus]
    Em		     C                D                  D		
e||------------------|-----------------|-2----------------|-----------------|
B||-0-----___---___--|-1--___--___-----|-3--___--___------|----___--___-----|
G||-0-----|-|---|-|--|-0--|-|--|-|--|--|-2--|-|--|-|--|---|-|--|-|--|-|--|--|
D||-2-----|-|---|-|--|-2--|-|--|-|--|--|-0--|-|--|-|--|---|-|--|-|--|-|--|--|
A||-2------------|-3----------|-------------|-----------|
E||-0----------------|-----------------|------------------|-----------------|

     Now     Your life is   now  Your life is     now                                In this

    Em		     C                D                  D		
e||------------------|-----------------|-2----------------|-----------------|
B||-0-----___---___--|-1--___--___-----|-3--___--___------|----___--___-----|
G||-0-----|-|---|-|--|-0--|-|--|-|--|--|-2--|-|--|-|--|---|-|--|-|--|-|--|--|
D||-2-----|-|---|-|--|-2--|-|--|-|--|--|-0--|-|--|-|--|---|-|--|-|--|-|--|--|
A||-2------------|-3----------|-------------|-----------|
E||-0----------------|-----------------|------------------|-----------------|

    Undiscovered moment               lift your  head  up  above  the   crowd        We could

    Em		     C                D                  D		
e||------------------|-----------------|-2----------------|-----------------|
B||-0-----___---___--|-1--___--___-----|-3--___--___------|----___--___-----|
G||-0-----|-|---|-|--|-0--|-|--|-|--|--|-2--|-|--|-|--|---|-|--|-|--|-|--|--|
D||-2-----|-|---|-|--|-2--|-|--|-|--|--|-0--|-|--|-|--|---|-|--|-|--|-|--|--|
A||-2------------|-3----------|-------------|-----------|
E||-0----------------|-----------------|------------------|-----------------|

    Shake    this  world   if you would            only   show  us  how         Your life is now

    G		                                       		
e||------------------|-----------------|------------------|-----------------|
B||-3-------3--3-----|-3---3--3---3--3-|-3-------3--3-----|-3---3--3--3--3--|
G||-0-------0--0-----|-0---0--0---0--0-|-0-------0--0-----|-0---0--0--0--0--|
D||-0-------0--0-----|-0---0--0---0--0-|-0-------0--0-----|-0---0--0--0--0--|
A||-2-------2--2-----|-2---2--2---2--2-|-2-------2--2-----|-2---2--2--2—-2--|
E||-3-------3--3-----|-3---3--3---3--3-|-3-------3--3-----|-3---3--3--3--3--| 

   [Verse 2]	
    G		     C                D                  D		
e||------------------|-----------------|-2----------------|-----------------|
B||-3--___--___------|-1--___--___-----|-3--___--___------|----___--___-----|
G||-0--|-|--|-|--|---|-0--|-|--|-|--|--|-2--|-|--|-|--|---|-|--|-|--|-|--|--|
D||-0--|-|--|-|--|---|-2--|-|--|-|--|--|-0--|-|--|-|--|---|-|--|-|--|-|--|--|
A||-2-----------|-3----------|-------------|-----------|
E||-3----------------|-----------------|------------------|-----------------|

   Would you teach your children to tell the truth



    G		     C                D                  D		
e||------------------|-----------------|-2----------------|-----------------|
B||-3--___--___------|-1--___--___-----|-3--___--___------|----___--___-----|
G||-0--|-|--|-|--|---|-0--|-|--|-|--|--|-2--|-|--|-|--|---|-|--|-|--|-|--|--|
D||-0--|-|--|-|--|---|-2--|-|--|-|--|--|-0--|-|--|-|--|---|-|--|-|--|-|--|--|
A||-2-----------|-3----------|-------------|-----------|
E||-3----------------|-----------------|------------------|-----------------|

  Would you take the high road    if you could     choose

    G		     C                D                  D		
e||------------------|-----------------|-2----------------|-----------------|
B||-3--___--___------|-1--___--___-----|-3--___--___------|----___--___-----|
G||-0--|-|--|-|--|---|-0--|-|--|-|--|--|-2--|-|--|-|--|---|-|--|-|--|-|--|--|
D||-0--|-|--|-|--|---|-2--|-|--|-|--|--|-0--|-|--|-|--|---|-|--|-|--|-|--|--|
A||-2-----------|-3----------|-------------|-----------|
E||-3----------------|-----------------|------------------|-----------------|

  Do you believe you’re a victim of a great compromise----------.                Cause I believe

    Em		     C                D                  D		
e||------2-----------|-----------------|-2----3---2-------|-----------------|
B||-0----0---0-------|-1---3---1-------|-3----3---3-------|-3---------------|
G||-0----0---0-------|-0---0---0-------|-2----2---2-------|---2-------------|
D||-2----2---2-------|-2---2---2-------|-0----0---0-------|-----------------|
A||-2----2---2-------|-3---3---3-------|------------------|-----------------|
E||-0----0---0-------|-----------------|------------------|-----------------|

   You change  your mind    and change our lives                                   your life is

 [Chorus]

 [Solo] Solo arrangement for guitar

    D	     		     D                 G                  G
e||------------------|-----------------|------------------|-----------------|
B||-------8-----7----|-------8-----7---|--8----6-5--------|-----------------|
G||--7-9-------------|--7-9------------|-------------7----|-(7)---5--4---2--|
D||------------------|-----------------|------------------|-----------------|
A||------------------|-----------------|------------------|-----------------|
E||------------------|-----------------|------------------|-----------------|
                                                                                      
    D	     		     D                 G                  G
e||------------------|-----------------|------------------|-----------------|
B||-------8-----7----|-------8-----7---|---------8-7---8--|-----------------|
G||--7-9-------------|--7-9------------|-9-7---------9----|-9-7-------------|
D||------------------|-----------------|-----9-7----------|------9-7----5---|
A||------------------|-----------------|------------------|-----------------|
E||------------------|-----------------|------------------|-----------------|

 [Intro 1x]






[Verse 3]
    G                  C                D                   D
e||------------------|-----------------|------------------|-----2-------2---|
B||------------------|-----------------|---3------3-------|-------------3---|
G||-(0)--------------|-----------------|---2------2-------|---2----2----2---|
D||-(0)--------------|--2------2-------|------------------|-------------0---|
A||------------------|--3------3-------|------------------|-----------------|
E||-(3)--------------|-----------------|------------------|-----------------|

    Would you teach your children     to tell the  truth                          This is your

    Em		     C                D                  D		
e||------2-----------|-----------------|-2-2-2-2-2-2-2-2--|-2-2-2-2-2-2-2-2-|
B||-0----0---0-------|-----1-----------|-3-3-3-3-3-3-3-3--|-3-3-3-3-3-3-3-3-|
G||-0----0---0-------|-----0-----------|-2-2-2-2-2-2-2-2--|-2-2-2-2-2-2-2-2-|
D||-2----2---2-------|-----2-----------|-0-0-0-0-0-0-0-0--|-0-0-0-0-0-0-0-0-|
A||-2----2---2-------|-----3-----------|------------------|-----------------|
E||-0----0---0-------|-----------------|------------------|-----------------|

   Time                     to do what you will do                                    your life is

   [Chorus]


Текст, аккорды и табулатура для песни "Your Life Is Now", исполняет "Mellencamp John Cougar".
Используемые в песне аккорды можно найти в разделе Как брать аккорды. Аккорды для шестиструнной гитары. Другие песни можно найти на нашем сайте, воспользовавшись алфавитным указателем вверху страницы.


Слушать онлайн Your Life Is Now


Vitamin String QuartetYour Life Is Now на Яндекс.Музыке


 
Ошибка в тексте? Выделите ошибку и нажмите Ctrl+Enter