Megaherz - Wer Bist Du
Submitted By: Nate Dunne
EMail: [email protected]


Tuning:
|-D#-|
|-A#-|
|-F#-|
|-C#-|
|-G#-|
|-C#-|

 

 
 
 

(0:10) Intro
(1:19) First Verse
(0:48) Chorus
(1:07) Second Verse
(1:51) Interlude
(2:00) Chorus
(2:10) Chorus
(2:20) Chorus
(2:29) Chorus
(2:44) Chorus
(2:53) Chorus

Intro
D#-----------------------------------------------------------------|
A#-----------------------------------------------------------------|
F#-----------------------------------------------------------------|
C#-----------------------------------------------------------------|
G#-3/4-2-2-4-3-2-3-2/3-2-2-1-2-2-3-3/4-2-2-4-3-2-2-2/3-2-2-3/4-43-|
C#-3/4-2-2-4-3-2-3-2/3-2-2-1-2-2-3-3/4-2-2-4-3-2-2-2/3-2-2-3/4-43-|



Note: You should be able to pick it up by listening to the part 
by yourself.

First Verse
D#----------------------------------|------------------------------|
A#----------------------------------|------------------------------|
F#----------------------------------|------------------------------|
C#----------------------------------|------------------------------|
G#-2-2-----2-2-----2-2-----2-2--2-2-|------------------------------|
C#-2-2-----2-2-----2-2-----2-2--2-2-|------------------------------|

D#-----------------------------------------------------------------|
A#-----------------------------------------------------------------|
F#-----------------------------------------------------------------|
C#-----------------------------------------------------------------|
G#-3/4-2-2-4-3-2-3-2/3-2-2-1-2-2-3-3/4-2-2-4-3-2-2-2/3-2-2-3/4-43-|
C#-3/4-2-2-4-3-2-3-2/3-2-2-1-2-2-3-3/4-2-2-4-3-2-2-2/3-2-2-3/4-43-|

D#-----------------------------------------------------------------|
A#-----------------------------------------------------------------|
F#-----------------------------------------------------------------|
C#-----------------------------------------------------------------|
G#-3/4-2-2-4-3-2-3-2/3-2-2-1-2-2-3-3/4-2-2-4-3-2-2-2/3-2-2-3/4-43-|
C#-3/4-2-2-4-3-2-3-2/3-2-2-1-2-2-3-3/4-2-2-4-3-2-2-2/3-2-2-3/4-43-|

D#---------------------------------|-------------------------------|
A#---------------------------------|-------------------------------|
F#---------------------------------|-------------------------------|
C#---------------------------------|-------------------------------|
G#-2-2-----2----------2-2--------2-|-------------------------------|
C#-2-2-----2----------2-2--------2-|-------------------------------|

Chrous
D#-----------------------------------------------------------------|
A#-----------------------------------------------------------------|
F#-----------------------------------------------------------------|
C#-----------------------------------------------------------------|
G#-3/4-2-2-4-3-2-3-2/3-2-2-1-2-2-3-3/4-2-2-4-3-2-2-2/3-2-2-3/4-43-|
C#-3/4-2-2-4-3-2-3-2/3-2-2-1-2-2-3-3/4-2-2-4-3-2-2-2/3-2-2-3/4-43-|



Second Verse
D#-----------------|-----------------------------------------------|
A#-----------------|-----------------------------------------------|
F#-----------------|-----------------------------------------------|
C#-----------------|-----------------------------------------------|
G#-2-2-----2-2-----|-----------------------------------------------|
C#-2-2-----2-2-----|-----------------------------------------------|

D#-----------------------------------------------------------------|
A#-----------------------------------------------------------------|
F#-----------------------------------------------------------------|
C#-----------------------------------------------------------------|
G#-3/4-2-2-4-3-2-3-2/3-2-2-1-2-2-3-3/4-2-2-4-3-2-2-2/3-2-2-3/4-43-|
C#-3/4-2-2-4-3-2-3-2/3-2-2-1-2-2-3-3/4-2-2-4-3-2-2-2/3-2-2-3/4-43-|



Interlude
D#-------------------------------|---------------------------------|
A#-------------------------------|---------------------------------|
F#-------------------------------|---------------------------------|
C#-------------------------------|---------------------------------|
G#-2-----------------------------|---------------------------------|
C#-2---|---------------------------------|

D#-----------------------------------------------------------------|
A#-----------------------------------------------------------------|
F#-----------------------------------------------------------------|
C#-----------------------------------------------------------------|
G#-3/4-2-2-4-3-2-3-2/3-2-2-1-2-2-3-3/4-2-2-4-3-2-3-2/3-2-2-1-2-2-3-|
C#-3/4-2-2-4-3-2-3-2/3-2-2-1-2-2-3-3/4-2-2-4-3-2-3-2/3-2-2-1-2-2-3-|

D#---------------------------------|-------------------------------|
A#---------------------------------|-------------------------------|
F#---------------------------------|-------------------------------|
C#---------------------------------|-------------------------------|
G#-3/4-2-2-4-3-2-3-2/3-2-2-1-2-2-3-|-------------------------------|
C#-3/4-2-2-4-3-2-3-2/3-2-2-1-2-2-3-|-------------------------------|


Текст, аккорды и табулатура для песни "Wer Bist Du", исполняет "Megaherz".
Используемые в песне аккорды можно найти в разделе Как брать аккорды. Аккорды для шестиструнной гитары. Другие песни можно найти на нашем сайте, воспользовавшись алфавитным указателем вверху страницы.


 
Ошибка в тексте? Выделите ошибку и нажмите Ctrl+Enter