Megaherz - КорfsснuЯ
Submitted By: Nate Dunne
EMail: [email protected]


Tuning:
|-D#-|
|-A#-|
|-F#-|
|-C#-|
|-G#-|
|-C#-|

(0:52) Chorus
(0:58) Chorus
(1:48) Chorus
(1:54) Chorus
(1:59) Chorus
(2:06) Chorus
(2:11) Interlude
(2:22) Interlude
(3:07) Chorus
(3:13) Chorus
(3:19) Chorus
(3:24) Chorus
(3:32) Interlude
(3:41) Interlude
(3:53) Chorus
(3:58) Chorus
(4:04) Chorus
(4:09) Chorus

Chorus
D#--------------------------------------------------|
A#--------------------------------------------------|
F#--------------------------------------------------|
C#--------------------------------------------------|
G#-4/3--2/4--3/6-6-2/4--43--2/4--3/6-6-7-6-5-6-4-|
C#-4/3--2/4--3/6-6-2/4--43--2/4--3/6-6-7-6-5-6-4-|

Interlude
D#--------------------------------------------|-|
A#--------------------------------------------|-|
F#--------------------------------------------|-|
C#--------------------------------------------|-|
G#-2-2-2--2-2-2-2-4-2-4--3-3-3--3-3-3-3-5-3-5-|-|
C#-2-2-2--2-2-2-2-4-2-4--3-3-3--3-3-3-3-5-3-5-|-|

D#----------------------------------------------|
A#----------------------------------------------|
F#----------------------------------------------|
C#----------------------------------------------|
G#-2-2-2--2-2-2-2-4-2-4--3-3-3---3---2-3---2-3--|
C#-2-2-2--2-2-2-2-4-2-4--3-3-3---3---2-3---2-3--|


Текст, аккорды и табулатура для песни "Kopfschub", исполняет "Megaherz".
Используемые в песне аккорды можно найти в разделе Как брать аккорды. Аккорды для шестиструнной гитары. Другие песни можно найти на нашем сайте, воспользовавшись алфавитным указателем вверху страницы.


 
Ошибка в тексте? Выделите ошибку и нажмите Ctrl+Enter