#----------------------------------PLEASE NOTE--------------------------------#
#This file is the author's own work and represents their interpretation of the#
#song. You may only use this file for private study, scholarship, or research.#
#-----------------------------------------------------------------------------#
#-- File created with Instab - http://www.pconline.com/~smcarey/instab.html --#
#-----------------------------------------------------------------------------#

Author/Artist: Megadeth
Title: A tout la monde solo
Album: Youthanasia
Transcribed by: Dave Holland
you all suck

------------------------------------------------------------------------------|
----10------------------------------------------------------------------------|
-11----11--9h11-------------6-------------------------------------------------|
---------------9h11--9-7-9----------------------------------------------------|
------------------------------9-7-7h9-----------------------------------------|
------------------------------------------------------------------------------|


------------------------------------------------------------------------------|
------------------------------------------------------------------------------|
-------------6-4--------------------------------------------------------------|
-----------7------------------------------------------------------------------|
-9-7-5-5-5--------------------------------------------------------------------|
------------------------------------------------------------------------------|


------------------------------------------------------------------------------|
-----2---------------2--------------------------------------------------------|
-2-4---2-4-4-----2-4---2-4-2--------------------------------------------------|
------------------------------------------------------------------------------|
------------------------------------------------------------------------------|
------------------------------------------------------------------------------|


-----------------------12-----------------------------------------------------|
---10---10--10--10--12---12--10-10-10h12h10-----------------------------------|
-11---11---11--11---------------------------11-9------------------------------|
------------------------------------------------------------------------------|
--------------------------------------------------12--------------------------|
------------------------------------------------------------------------------|


------------------------------------------------------------------------------|
------------------------------------------------------------------------------|
-11-11-11h12-11---------------------------------------------------------------|
-12-12-12----12---------------------------------------------------------------|
------------------------------------------------------------------------------|
------------------------------------------------------------------------------|


------------------------------------------------------------------------------|
------------------------------------------------------------------------------|
-----------11-9---------------------------------------------------------------|
------9-11------11-9----------------------------------------------------------|
-9-11-------------------------------------------------------------------------|
------------------------------------------------------------------------------|


-12---------------------------------------------------------------------------|
----12-10-------------12-17-16vvvvvvvv----------------------------------------|
----------12-10-12-13---------------------------------------------------------|
------------------------------------------------------------------------------|
------------------------------------------------------------------------------|
------------------------------------------------------------------------------|


Текст, аккорды и табулатура для песни "Tout La Monde", исполняет "Megadeth".
Используемые в песне аккорды можно найти в разделе Как брать аккорды. Аккорды для шестиструнной гитары. Другие песни можно найти на нашем сайте, воспользовавшись алфавитным указателем вверху страницы.


 
Ошибка в тексте? Выделите ошибку и нажмите Ctrl+Enter