Rust In Peace... Polaris
Transcribed By Christopher Heer
Standard Tuning 

Intro
-----------------------------------------------------------------
-----------------------------------------------------------------
-----------------------------------------------------------------
-----4-------4---5----04-5----04-----4-------4---5---5---5---5---
------433-----43-3--4--2-3--4--2------433-----43-3---3---3---3---
-2-2-----2-2--------2-------2----2-2-----2-2---------------------

Verse
-----------------------------------------------------------------
-----------------------------------------------------------------
-----------------------------------------------------------------
-5-----------------------------------2-----4---------------------
-3-----------2h3p2-------------------0-----2---------------------
-------------------5-2-0-5---2-----2-----------------------------

-----------------------------------------------------------------
-----------------------------------------------------------------
-----------------------------------------------------------------
-5---------------------------------------2-----4-----------------
-3-----------2h3p2-----------4-----x-x-x-0-----2-----------------
-------------------5-2-0-5---2-----x-x-x-------------------------

Pre-Chorus
-----------------------------------------------------------------
-----------------------------------------------------------------
-----------------------------------------------------------------
-----------------------------------------------------------------
-4-----x-x-x-4-----x-x-x-4-----x-x-x-4---2---4-------------------
-2-----x-x-x-2-----x-x-x-2-----x-x-x-2---0---2-------------------

-----------------------------------------------------------------
-----------------------------------------------------------------
-----------------------------------------------------------------
-----------------------------------------------------------------
-5-----x-x-x-5-----x-x-x-5-----x-x-x-7---7---x-x-----------------
-3-----x-x-x-3-----x-x-x-3-----x-x-x-5---5---x-x-----------------

Chorus
-----------------------------------------------------------------
-----------------------------------------------------------------
-----------------------------------------------------------------
-4p2---2-----------4p2---2-----------5-------3-------------------
-----4---4-0-3-2-0-----4---4-0-3-2-0-3---5---1-------------------
-----------------------------------------3-----------------------

Outro
-----------------------------------------------------------------
-----------------------------------------------------------------
-----------------------------------------------------------------
-------------------------------------------------------------5---
-4---4-----4-5---4-----4-----4-5-4---4-----4-5---4-----4-----3---
-2---2---0-2-3---0---0-2---0-2-3-2---2---0-2-3---2---0-2---0-----

Outro Interlude
-----------------------------------------------------------------
-----------------------------------------------------------------
-----------------------------------------------------------------
-----------------------------------------------------------------
-2h3p2p0-2p0-----------------------------------------------------
-------------3p2-2-2-2-5-2-0-2-----------------------------------


Текст, аккорды и табулатура для песни "Rust In Peace", исполняет "Megadeth".
Используемые в песне аккорды можно найти в разделе Как брать аккорды. Аккорды для шестиструнной гитары. Другие песни можно найти на нашем сайте, воспользовавшись алфавитным указателем вверху страницы.


 
Ошибка в тексте? Выделите ошибку и нажмите Ctrl+Enter