Title : Last Rites
        Artist : Megadeth
         Album : Killing Is My Business...And Business Is Good!
Transcribed by : Skywalker  -  [email protected]


Legend
------

 h  = hammer-on
 p  = pull-off
 b  = bend
 r  = bend release
 /  = slide up/down
 = natural harmonic
[5] = artifical harmonic
 ~  = vibrato
 tr = trill



  SECTION A: PIANO ARRANGED FOR GUITAR

E-||---17--15--17--13--17--12--17------17--12--17--13--17------17------
B-||*------------------------------15----------------------15------14--
G-||-------------------------------------------------------------------
D-||-------------------------------------------------------------------
A-||*------------------------------------------------------------------
D-||-------------------------------------------------------------------
  *  Drop D Tuning

E-|--17------17--12--17------17------17------17------17--12--17--(17)--
B-|------15------------------------------14------15--------------------
G-|----------------------14------16------------------------------------
D-|--------------------------------------------------------------------
A-|--------------------------------------------------------------------
D-|--------------------------------------------------------------------


E--||---18--17--18--15--18--13--18--12--18--13--18--15--18------18----|-
B-*||-------------------------------------------------------13--------|-
G--||-----------------------------------------------------------------|-
D--||-----------------------------------------------------------------|-
A-*||-----------------------------------------------------------------|-
D--||-----------------------------------------------------------------|-


E|--17--15--17--13--17--12--17------17--12--17--13--17------17-------15-
B|------------------------------15----------------------13--------------
G|----------------------------------------------------------------------
D|----------------------------------------------------------------------
A|----------------------------------------------------------------------
D|----------------------------------------------------------------------


E|--13--15--12--15--10--15------15--10--15--12--15--13--15----||-------
B|--------------------------14--------------------------------||-------
G|------------------------------------------------------------||-------
D|------------------------------------------------------------||-------
A|------------------------------------------------------------||-------
D|------------------------------------------------------------||-------



                              SECTION A: ORGAN (upper) / BASS (lower)

E----------------------------------------------------------------------
B-------------------------------10--8----------------------------------
G----------------------------------------10----9----7----9----10----7--
D--------------------------------7--5----------------------------------
A-----------------------------------------8----7----5----7-----8----5--
D----------------------------------------------------------------------


E|------|--------------------------------------------------------------
B|------|-----------------------------------------------11--10----8----
G|---6--|----7----9--------------6----7----9----(9)--------------------
D|------|--------------7----9----------------------------8---7----5----
A|---4--|----5----7--------------4----5----7----(7)--------------------
D|------|--------------7----9------------------------------------------


E|-------------------------------|-------------------------------------
B|------------------8------------|--10--8------------------------------
G|-10----9----10-----------------|-----------10----9----7----9----10---
D|------------------5----10------|---7--5------------------------------
A|--8----7-----8-----------------|------------8----7----5----7-----8---
D|-----------------------10------|-------------------------------------


E|-----------------------------------------------------||--------------
B|-------------8--6----5-------------------5----6------||--------------
G|--------------------------7----6----7----------------||--------------
D|--10---------5--3----2-------------------2----3------||--------------
A|--------------------------5----4----5----------------||--------------
D|--10-------------------------------------------------||--------------



                       SECTION B: GUITAR 1 / PIANO (piano ignores slides)

E--------------------------------------17-----------------------17-------
B-------------------------15---------------------------------------------
G------------------------------/-14----------14---------/-14----------14-
D--------------------------------------------------15--------------------
A------------------------------------------------------------------------
D------------------------------------------------------------------------


E|---|-----------------15-----------------------15---------------------
B|---|-----------------------------------------------------------------
G|---|---------/-14----------14---------/-14----------14---------------
D|---|----14-----------------------14----------------------------------
A|---|-----------------------------------------------------------------
D|---|-----------------------------------------------------------------



                                                           SECTION B: ORGAN (upper) / BASS (lower)

E-------------------------------------------------------------10-------
B-------------------------------------------------------------10-------
G----------------------------------------------------------------------
D----------------------------------------------------------------------
A--------------------------------------------------------------5----0--
D----------------------------------------------------------------------


E|-------------10------------------|-----9--------------------9--------
B|-------------10------------------|----10-------------------10--------
G|---------------------------------|-----------------------------------
D|---7--------------------7--------|---------------5-------------------
A|--------0-----5----0---------0---|-----4----0---------0-----4----0---
D|---------------------------------|-----------------------------------



             SECTION C: GUITAR 1

E|----------------------------------------------------------------------
B|----------------------------------------------------------------------
G|----------------------------------------------------------------------
D|--5---------8p-7-8p7-8p7-8p7-5-7-8-10p8-7-5-7-8-12p8-7-5-7-8-15p8-7-5-
A|-------0--------------------------------------------------------------
D|----------------------------------------------------------------------


E|------------|---------------------------------------------------------
B|------------|---------------------------------------------------------
G|------------|---------------------------------------------------------
D|-7-8-17p8-7-|-5-7-8-20p8-7-5-7-8-17p8-7-5-7-8-15p8-7-5-7-8-12p8-7-5-7-
A|------------|---------------------------------------------------------
D|------------|---------------------------------------------------------


E|------------------------------------------------------|--------------
B|------------------------------------------------------|--------------
G|------------------------------------------------------|--------------
D|-8-10p8-7-5-0-------------------------8---------------|--7-----------
A|------------------h3/-5-------------------------------|--------------
D|------------------------------------------------------|--------------


E|-----------------------------------------------------------|---------
B|-----------------------------------------------------------|---------
G|-----------------------------------------------------------|---------
D|-------5---------------------------------------------------|---------
A|-----------------------------------------------------------|---------
D|-------------------------0---------------------------------|---(0)---



                                  SECTION C: PIANO

E|-----------------------------*|--------------------------------------
B|-----------------------------*|--11------------------10--------------
G|-----------------------------*|--10------------------10--------------
D|-----------------------------*|---8-------------------7--------------
A|-----------------------------*|--------------------------------------
D|-----------------------------*|--------------------------------------


E|--|------------------------------------------------------------------
B|--|--8-----------------6-----------------3---------------------------
G|--|--9-----------------7-----------------2------------------3--------
D|--|--5-----------------3-----------------0------------------3--------
A|--|------------------------------------------------------------------
D|--|------------------------------------------------------------------


E|--------|-------------------------------------------------------------
B|--------|--------------------------------------3----------------------
G|--------|--2-----------------0-----------------2----------------------
D|--------|--3-----------------2-----------------0----------------------
A|--------|-------------------------------------------------------------
D|--------|--------------------------------------0----0-0-0-0-0-0-0-0-0-


E|-----------------------------------------|---------------------------
B|-----------------------------------------|---------------------------
G|-----------------------------------------|---------------------------
D|-----------------------------------------|---------------------------
A|-----------------------------------------|---------------------------
D|-0-0-0-0-0-0-0-0-0-0-0-0-0-0-0-0-0-0-0-0-|-0-0-0-0-0-0-0-0-0-0-0-0-0-



                                SECTION C: ORGAN (upper) / BASS (lower)

E|---------------------------*|---------------------------------------|-
B|---------------------------*|---------------------------------------|-
G|-----------2---------------*|--15------------------14---------------|-
D|-----------0---------------*|--12------------------12---------------|-
A|-----------0---------------*|---------------------------------------|-
D|-0-0-0-0-0-0---------------*|---8-----------------------------------|-
                                 *  Bass fades on this note.

E|---------------------------------------------------------------------
B|---------------------------------------------------------------------
G|--12-----------------10-----------------9------------------15--------
D|--12-----------------12-----------------9------------------15--------
A|------------------------------------------------------------1--------
D|---------------------------------------------------------------------
                                                             *  Bass starts here

E|--------|------------------------------------------------------------
B|--------|------------------------------------------------------------
G|--------|--14-----------------12-------------------------------------
D|--------|--15-----------------12-----------------0-------------------
A|--------|---0--------------------------------------------------------
D|--------|----------------------5-----------------0-------------------


E|---------------|--------------------------------------*|-
B|---------------|--------------------------------------*|-
G|---------------|--------------------------------------*|-
D|---------------|---(0)--------------------------------*|-
A|---------------|--------------------------------------*|-
D|---------------|---(0)----------------0---------------*|-


Текст, аккорды и табулатура для песни "Last Rites", исполняет "Megadeth".
Используемые в песне аккорды можно найти в разделе Как брать аккорды. Аккорды для шестиструнной гитары. Другие песни можно найти на нашем сайте, воспользовавшись алфавитным указателем вверху страницы.


 
Ошибка в тексте? Выделите ошибку и нажмите Ctrl+Enter