Megadeth - Killing Is My Business... And Business Is Good
Tabbed By: Drew Porter
EMail: [email protected]

Tuning: Standard (E A D G)
Intro                                                 
G||------------||-----------|--------------------||
D||------------||o----------|-------------------o||
A||-4/--3/--2/-||o-0-24----|-------------------o||
E||------------||-----------|----2/32-0-0-2/32-||

fill
G||-6--------------------------||
D||---6-5-4-2------------------||
A||-----------4-3-2------------||
E||-----------------4-3-2-1-0--||

verse                                      last time

G||--------------------------------------||-----||
D||o------------------------------------o||-----||
A||o-4--------------4-----------7-------o||-----||
E||-----------2--0-----------0-----2--0--||--4--||

Bridge                                                 1st     2nd 
         
G||-------------------------------------------------||-----||-----||
D||o---------2---------------4---------------------o||----o||--4--||
A||o-2-2-4-4---4-4-4-2-2-4-4---4-4-4-4-4-4-3-3-2-2-o||----o||-----||
E||-------------------------------------------------||--2--||-----||

ten thousand...

G||-------------------------------------||-----------------------------------||
D||o-----------------------------------o||-----------------------------------||
A||o-4-4-4-4-4-4-4-4-4-4-4-4-4-4-4-4-7-o||-0-2-0---0-2-4(16x)-7-0-2-0---0-2-4||
E||-------------------------------------||-------4---------------------------||

fill before lat verse

G||-----------------------------||
D||-----------------------------||
A||-5-0-0-4-0-0-3-0-0-5-4-5-7-4-||
E||-----------------------------||

Outro

G||-----------------------------------------||
D||o---------------------------------------o||
A||o-7----------------0-2-3(8x)-0-3--------o||
E||----0(8x)-3-4-5(8x)--------------2(8x)-5-||


Текст, аккорды и табулатура для песни "Killing Is My Business And Business Is Good", исполняет "Megadeth".
Используемые в песне аккорды можно найти в разделе Как брать аккорды. Аккорды для шестиструнной гитары. Другие песни можно найти на нашем сайте, воспользовавшись алфавитным указателем вверху страницы.


 
Ошибка в тексте? Выделите ошибку и нажмите Ctrl+Enter