A piece from High Speed Dirt
(Megadeth, Countdown to Extinction)

Note: Play triplets!


E|-17-P16-P15-P14-H15-H16-|-17-P12------15-P12-----|
B|------------------------|---------14----------14-|
G|------------------------|------------------------|
D|------------------------|------------------------|
A|------------------------|------------------------|
E|------------------------|------------------------|


E|-14-P12--------------12-|------------------------|
B|---------15--14--15-----|-15-P14-P12--14--------|
G|------------------------|------------------------|
D|------------------------|------------------------|
A|------------------------|------------------------|
E|------------------------|------------------------|


E|------------------------|------------------------|
B|-13------12-------------|------------------------|
G|-----14------12--14--12-|-11--12--14--12--11-----|
D|------------------------|---------------------14-|
A|------------------------|------------------------|
E|------------------------|------------------------|

   __________               __________
   |  |  |  |               |  |  |  |
E|------------------------|------------------------|
B|------------------------|------------------------|
G|------------------------|------------------------|
D|-16P15P14----14-H16-P14-|-14P13P12----14---------|
A|----------17------------|----------15-----15-B16-|
E|------------------------|------------------------|


E|------------------------|
B|------------------------|
G|------------------------|
D|------------------------|
A|-12---------------------|
E|------------------------|


Текст, аккорды и табулатура для песни "High Speed Dirt", исполняет "Megadeth".
Используемые в песне аккорды можно найти в разделе Как брать аккорды. Аккорды для шестиструнной гитары. Другие песни можно найти на нашем сайте, воспользовавшись алфавитным указателем вверху страницы.


 
Ошибка в тексте? Выделите ошибку и нажмите Ctrl+Enter