Have Cool, Will Travel
Transcribed by Christopher Heer
Standard Tuning

Intro & Verse
---------------------------------------------------
---------------------------------------------------
-9-9-9-9-9---------------9-9-9-9-9------------7--
-9-9-9-9-9------7--8--9--9-9-9-9-9------7--8--5--
-7-7-7-7-7------7--8--9--7-7-7-7-7------7--8-----
-----------------5--6--7------------------5--6-----

Pre-Chorus
------------------------------------
------------------------------------
------------------------------------
-4-x2-x-----------4-x2-x------------
-------4-x2-x-----------4-x2-x------
-------------5-2--------------5-2---

Chorus
(Rhythm)
----------------------------------------------------------------------
----------------------------------------------------------------------
------------------------------5--------------2--------------------------
-2-------------5--------------5--------------2----------------------------
-2-------------5--------------3--------------0----------------------------
-0-------------3--------------------------------------------------------

(Lead)
---------7------------------------------------------12------------------9--------
-----------------------------12---------------13----------13-------10-----10-----
-----9-------9---------12----------12------12----12----12--------9----9------9---
---9---9---9--------12----12----12------10---------------------7---------------7-
-7---------------10--------------------------------------------------------------
---------------------------------------------------------------------------------

Solo Rhythm
---------------------
---------------------
-9---7---9---7---9-7-
-9---7---9---7---9-7-
-7---5---7---5---7-5-
---0---0---0---0-----


Текст, аккорды и табулатура для песни "Have Cool Will Travel", исполняет "Megadeth".
Используемые в песне аккорды можно найти в разделе Как брать аккорды. Аккорды для шестиструнной гитары. Другие песни можно найти на нашем сайте, воспользовавшись алфавитным указателем вверху страницы.


 
Ошибка в тексте? Выделите ошибку и нажмите Ctrl+Enter