Good Mourning Black Friday
Transcribed by [email protected]

-----4-----0---------4----0---------4----0---
---4---4-----4-2---4---4----------4--4-------
-1------ 1-------4-------4-------------------
----------------------------6-4-2------2-----
---------------------------------------------
---------------------------------------------



-------------3-----------6-----------11---
---------------4-------5---5---8--11------
---------6-------6-4-6-------9------------
-2-4---5---5------------------------------
-----4------------------------------------
------------------------------------------



----4---0-------4---0-------4---0-------4-----4-----4-----3-- repeat 4x
--4---4---4---4---4---4---4---4---4---4-----4-----4-----4----
1-----------3-----------4-----------6-----4-----3-----0------
-------------------------------------------------------------
-------------------------------------------------------------
-------------------------------------------------------------



----------11-9-7-6---------7-6--9-7------ repeat measure
-4---4--7----------6---4-6---------------
---4-----------------3-------------------
-----------------------------------------
-----------------------------------------
-----------------------------------------
   

spoken:  Good Mourning
-------------------------7------
--7-8-10-8h-10p-8p-7------------
9---------------------9---------
--------------------------------
--------------------------------
--------------------------------



----------3h-5p-3---------------
----5-7-8---------7-5-8---------
8-8---------------------9-------
--------------------------------
--------------------------------
--------------------------------

()= 2nd time only

--------------------------------(7)-------(11)-------------
-7-8-8h-10p-8-7---7-----7-8-10--8h-10p-8p-7---------------- repeat
----------------9---8-9------------------------------------
-----------------------------------------------------------
-----------------------------------------------------------
-----------------------------------------------------------

guitar 1
w/ Distortion
.....................................................tight P.M.
-0---0-0---0--0----0-0---0------ etc. repeat x times
---0-----0------0------0--------
--------------------------------
--------------------------------
--------------------------------
--------------------------------


guitar 2
------------------------------------
------------------------------------
------------------------------------
-2----------------------2-----------
-2-----------5--3-------2-----------
-0-----------------3-2--0-----------


repeat both measures

------------------------------------- 
-------------------------------------
-------------------------------------
----------------2--------------------
--3--2----------2--------------------
--------3-2-3-5-0--------------------

Hey I don't feel so good...

-0---0-0-----0---0-0-----0---00-----0---0---0---- etc. repeat x times
---0-----0-0---0-----0-0---0----0-0---0---0---0--
-------------------------------------------------
-------------------------------------------------
-------------------------------------------------
-------------------------------------------------



--------------------------------
-------------------------------- repeat measure
--------------------------------
-2--4--5--7--5--4>5-------------
-2--4--5--7--5--4>5-------------
--------------------------------


pick slide
-------------------------------
-------------------------------
-------------------------------
-/--2---4--5--7--5--4->-5------
-/--2---4--5--7--5--4->-5------
-----0---2--3--5--3--2->-3-----


------------1st------------2nd-- to Black Friday
--------------------------------
--------------------------------                   
--------------------------------
-2---1--2--4-2-1>2-------2-1-2--
-0---2--3--5-3-2-3------0--2-3--


Текст, аккорды и табулатура для песни "Good Mourning Black Friday", исполняет "Megadeth".
Используемые в песне аккорды можно найти в разделе Как брать аккорды. Аккорды для шестиструнной гитары. Другие песни можно найти на нашем сайте, воспользовавшись алфавитным указателем вверху страницы.


 
Ошибка в тексте? Выделите ошибку и нажмите Ctrl+Enter