Megadeth, Duke Nukem.
Tabbed by Carl Fritzell,[email protected]
 
Duke Nukem Theme Song
Megadeth - Duke Nukem: Music To Score By

  Repeat 2X
E------------------------------------------
B------------------------------------------
G------------------------------------------
D---2-2--2---2-2--2-----2-2--2---3-3--3----
A---2-2--2---2-2--2-----2-2--2---3-3--3----
E---0-0--0---0-0--0-----0-0--0---1-1--1----


                                       b
E---------------------------------------------------------------
B---------------------------------------------------------------
G---------2-------2--4-------4--5-------------------------------
D---2--5--2-------2--4-------4--5--------------------5--5--5----
A---2--5--0-------0--2-------2--3-------2--0---------5--5--5----
E---0--3-----0-0--------0-0--------0-0--------3--0---3--3--3----


    Repeat 2X
E----------------------
B----------------------
G----------------------
D---3-3--3---3-3--3----
A---3-3--3---3-3--3----
E---1-1--1---1-1--1----

                                                                      ---------   ------------
                                                                     1.          2.
E------------------------------------------------------------------------------|--------------
B------------------------------------------------------------------------------|--------------
G-----------------------------------------------------------------------------.|--------------
D-------2-----2-----2-----2------------------2-----2-----2--------------------.|--------------
A-------2-----2-----2-----2------------------2-----2-----2---------------------|--------------
E--0-0--0--0--0--0--0--0--0--0--0-0-0---0-0--0--0--0--0--0--0--0-0-0---0-0-0---|--0-0-0--0-0-0




  This is the melody riff (not quite sure of the rhythm but its close)

E-----------------------------------------------
B-----------------------------------------------
G-----------------------------------------------
D--9-9-9--9-10--10--7-7-7--7-7-5-4-5---9-9------
A-----------------------------------------------
E-----------------------------------------------



E-----------------------------------------------
B-----------------------------------------------
G-----------------------------------------------
D--9--10--9--7--5--5--2--5--7--4----------------
A-----------------------------------------------
E-----------------------------------------------


E-----------------------------------------------
B--12-12-12--12-13-13--10-10-10--10-10--8--7--8-
G-----------------------------------------------
D-----------------------------------------------
A-----------------------------------------------
E-----------------------------------------------


E-----------------------------------------------
B--12-12-12--12-13-12-10--8--8-5-8-10-7--------
G-----------------------------------------------
D-----------------------------------------------
A-----------------------------------------------
E-----------------------------------------------
 
:: Ultimate Guitar Archive :: 
http://www.ultimate-guitar.com


Текст, аккорды и табулатура для песни "Duke Nukem", исполняет "Megadeth".
Используемые в песне аккорды можно найти в разделе Как брать аккорды. Аккорды для шестиструнной гитары. Другие песни можно найти на нашем сайте, воспользовавшись алфавитным указателем вверху страницы.


 
Ошибка в тексте? Выделите ошибку и нажмите Ctrl+Enter