Dread The Fugitive Mind (solo)
Megadeth
The World Needs A Hero
Each section represents one bar (4 beats)

   FB/////PB +r
E--------|-----------------------------------|
B--------|-----------------------------------|
G--14----|----14--(14)--12--11---12---14-----|
D--------|-----------------------------------|
A--------|-----------------------------------|
e--------|-----------------------------------|

   FB_____//////// [   3     ]  ////
E------------------------------10--8-|-7-------(7)-------------|
B------------------------------------|---------------------7----|
G--12-----(12)-----------------------|------------------9-------|
D------------------------------------|--------------/9----------|
A--------------------------10--------|--------------------------|
e------------------------------------|--------------------------|


                 p.m.  p.m.
E--------------------------|--------------------------|
B--8--7h8------------------|--------------------------|
G---------9--74-----5-----|--4--5p4------------------|
D-----------------7-----7--|---------7--5--4--5-------|
A--------------------------|---------------------7--6-|
e--------------------------|--------------------------|

   ///       //
E------------------------|
B------------------------|
G------------------------|
D------------------------|
A--7-----X--6--6---(6)/--|
e------------------------|

                                              // Gr              //
E------------------------------------------|-------------------------|
B----------------12p11-12p11------------17-|-19--(19)/20--17------19-|
G-----------12h14-----------14p12-11/-16---|------------------16-----|
D-11h12--14--------------------------------|-------------------------|
A------------------------------------------|-------------------------|
e------------------------------------------|-------------------------|

////            FB + r FB          /////
E-----------------------------|-----------------20----------|
B-------20--17-----22----(22)-|-(22)--(22)-----------22-20--|
G-----------------------------|-----------------------------|
D-----------------------------|-----------------------------|
A-----------------------------|-----------------------------|
e-----------------------------|-----------------------------|

   ///               FB(Gr)        ////    HB(Gr)___
E-------------------------|-------19-------------------|
B--22----X--19--20--22-20-|----------20------19-19-----|
G-------------------------|----------------------------|
D-------------------------|----------------------------|
A-------------------------|----------------------------|
e-------------------------|----------------------------|

________+r      ////    HB(Gr)________+r  /////
E-----------------------------|---------------------------0--|
B---------(19)----------19----|-------------------------0----|
G--------------21----------20-|---(20)--(20)-20--------------|
D-----------------------------|------------------------------|
A-----------------------------|------------------------------|
e-----------------------------|------------------------------|

                                             FB/////////
E--17p12----------------------------------|----------------------|
B-------15p12-----15p12-----------------0-|--15------------------|
G------------14p12-----14p12------------0-|----------------------|
D---------------------------14p13-12------|----------------------|
A-----------------------------------------|----------------------|
e-----------------------------------------|----------------------|

           FB        [  3   ] //
E------------------------------------|
B---0-15p12----12--------------------|
G----------14-----15-12----14-12--14-|
D-----------------------14-----------|
A------------------------------------|
e------------------------------------|


E----------------------------------12h14h15p12-|
B----------12--------------12h14h15------------|
G--12h14h15--15p14-12h14h15--------------------|
D----------------------------------------------|
A----------------------------------------------|
e----------------------------------------------|

                                    FB(gradual bend up another step)
E--14----12----------------------------|--------------------------|
B-----15----15-12----12-------------17-|-----------------(17)-----|
G-----------------15----15-12---0-----|--------------------------|
D--------------------------------0-----|--------------------------|
A--------------------------------------|--------------------------|
e--------------------------------------|--------------------------|

    ///               FB
E-----------------------20--|------------------------20---19-|
B--17----(17)--------------|--------------------------------|
G--------------/19--19------|--------------------------------|
D---------------------------|--------------------------------|
A---------------------------|--------------------------------|
e---------------------------|--------------------------------|

    HB + r HB + r HB +  r
E--(19)---(19)---(19)---(19)--|----------------------------------|
B------------------------------|-8h10--8--------------------------|
G------------------------------|-----11--11p9p7-7-9h7-7----7--7---|
D------------------------------|------------------------10-----10-|
A------------------------------|----------------------------------|
e------------------------------|----------------------------------|


E-------------------------------|-----------------------------------|
B---------------------------0-0-|-8h10--8---------------------------|
G-------------------------------|-----11--11p9p7-7-9p7--7-----------|
D--9p7-10p7-9p7-----------------|--------------------------9p7-10p7-|
A--------------10p7-10--7-------|-----------------------------------|
e-------------------------------|-----------------------------------|

                      //  harm.
E--------------------------7---|-------------------------------------|
B----------------------------7-|-8h10-7-8-10-7-8h10p8p7-10p7h8h10p8p7|
G--------------7--8p7-7--------|-------------------------------------|
D-------7h9h10-----------------|-------------------------------------|
A--9h10------------------------|-------------------------------------|
e------------------------------|-------------------------------------|

                                          FB________________HB__//
E-------------------------7-------19-22-|-22---------------(22)-22-|
B-10p7h8h10p8p7-10p7h8h10---8-----------|--------------------------|
G-----------------------------/19-------|--------------------------|
D---------------------------------------|--------------------------|
A---------------------------------------|--------------------------|
e---------------------------------------|--------------------------|

//// FB(PB)_______
E-(22)----22---------(22)----0-|19p15-----17p14----14p10-----12p8-10|
B-------------------------/17---|-----16-17-----17-0-----10-10----8--|
G-------------------------------|------------------------------------|
D-------------------------------|------------------------------------|
A-------------------------------|------------------------------------|
e-------------------------------|------------------------------------|


E-10--7h8---7----------------|
B---------10--10p7-8p7---7---|
G-----------------9---9----9-|
D-----------------------9----|
A----------------------------|
e----------------------------|

Key
FB   = Full Bend
HB   = Half Bend
PB   = Pre-Bent
//  = Vibrato
[3]  = Triplet
harm.= Harmonic(s)
+r   = and release
(Gr) = Gradual
___  = Hold (tied)
P.M  = Palm Mute


Текст, аккорды и табулатура для песни "Dread And The Fugitive Mind", исполняет "Megadeth".
Используемые в песне аккорды можно найти в разделе Как брать аккорды. Аккорды для шестиструнной гитары. Другие песни можно найти на нашем сайте, воспользовавшись алфавитным указателем вверху страницы.


 
Ошибка в тексте? Выделите ошибку и нажмите Ctrl+Enter