Captive Honour
Transcribed by Christopher Heer
Standard Tuning

Verse (4x)
---------0-------------0-----------------------------------------
-------------0-------0---0---0---------0-------------------------
-------0---0-------0-------0---------0---0---0-------0-------0---
-----2-----------------------------7-------7-------2-------0-----
---2-------------2---------------7---------------3-------0-------
-0-------------3---------------5---------------3-------2---------

(4x)
---------0-----------------------
-----------0---0-----------------
-------0-----0---------0-------0-
-----2---------------2-------0---
---2---------------2-------0-----
-0---------------3-------2-------

(2x)
---------0--------------------------------0-----------------------
-----------0---0----------------------------0---0-----------------
-------3-----3---------0--------0-------0-----0---------0-------0-
-----4---------------0--------4-------2---------------2-------2---
---4---------------3--------5-------2---------------2-------2-----
-2---------------3-------5--------0---------------3-------0-------

Interlude (4x)
----------------------
----------------------
----------------5-----
-4----3----2----5--5--
-4----3----2----3--5--
-2----1----0-------3--

(2x)
--------------------------------------------------------
--------------------------------------------------------
--------------------------------------------------------
-4--x-x-x--4--3--x-x-x--3--2--x-x-x--2--4/5-----4/5-x-x-
-4--x-x-x--4--3--x-x-x--3--2--x-x-x--2--2/3-----4/5-x-x-
-2--x-x-x--2--1--x-x-x--1--0--x-x-x--0------0-0-2/3-x-x-


-------------------------------------------------------------------------
-------------------------------------------------------------------------
-------------------------------------------------------------------------
-4-------------------------------4---------------------------------------
-4-------------------------------4-----------------------3-2-0---2---0-2-
-2-2-2-2-2-2-2-2-2-2-2-2-2-2-2-2-2-2-2-2-2-2-2-2-2-2-2-2-------2---2-----

Chorus
-----------------------------------------------------------------
-----------------------------------------------------------------
-----------------------------------------------------------------
----------4-------------4-4------------4-4---------2-------4-----
----0-2/4---4-0-3--3-3------3-0-2--2-2-----2-----4-------6---5---
-2-------------------------------------------4-5-----5/7-----3---

Verse
--------------------------------------------------------------
--------------------------------------------------------------
-------------------------------4------------------------------
-4--------------3--------------4------------------------------
-4--------------3--------------2--2-2-2-2-2-2-3-2-0---2---0-2-
-2--2-2-2-2-2-2-1--1-1-1-1-1-1----------------------2---2-----


Текст, аккорды и табулатура для песни "Captive Honor", исполняет "Megadeth".
Используемые в песне аккорды можно найти в разделе Как брать аккорды. Аккорды для шестиструнной гитары. Другие песни можно найти на нашем сайте, воспользовавшись алфавитным указателем вверху страницы.


 
Ошибка в тексте? Выделите ошибку и нажмите Ctrl+Enter