# Снял с альбома 6.3.0
# Строй EADGBE
# точки над табами я расставил, чтобы было удобнее считать длительности!
# ну а соло-гитару кому надо и сам подобрать сможет!

------- Куплет -------

Гитара:    
    Em              G               Em              G
E |-.---.---.---.---.---.---.---.---.---.---.---.---.---.-2-.---.---|
B |-------3---1---0-------3---1---0-------3---1---0-----------3---0-|
G |-----0---------------0---------------0---------------0-----------|
D |---2-----2---2-----0-----0---0-----2-----2---2-----0-----0---0---|
A ------------------------------------------------------|
E |-0---------------3---------------0---------------3---------------|

Бас:
    Em              G               Em              G
G |-.---.---.---.---.---.---.---.---.---.---.---.---.---.---.---.---|
D ------------------------------------------------------|
A ----------------------------------------------------2-|
E |-0-----0---0---0-3-----3---3---3-0-----0---0---0-3-----3---3-5---|


Соло на басу после бриджа:
    Em              G               Em              G
G |-.---.---.---.---.---.---.---.---.---.---.---.---.---.---.---.---|
D |-2-----2---2---2-5---------------------------------------------2-|
A -----------/5---3---2-----------2---------------0-2---|
E ----------------------------5-------3-------2---------|
    Em              G               Em              G[Distortion]
G |-.---.---.---.---.---.---.---.---.---.---.---.---.---.---.---.---|
D ------------------------------------------------------|
A -----------/5---3---2-----------2---------------------|
E |-0-----0---0---0-3---------------------5---------3---------------|

------- Припев -------

Гитара:
Аккордами E5 G5 D5 C5

Бас
    E5      G5      D5      C5
G |-.---.---.---.---.---.---.---.---|
D ----------------------|
A ------5-5-5-5-3-3-3-3-|
E |-0-0-0-0-3-3-3-3-----------------|

------- Бридж -------
Гитара: A# A F A F A# A F A F G# G F# F

------- Лирика, аккорды: -------
 Em      G
все прошло
с неба прозвучит прощай
суждено
ты говоришь мне

припев:
   E5      G5      D5      C5
улетай, улетай, улетай, улетай,
не скучай, не скучай, не скучай,
навсегда, навсегда, навсегда, навсегда,
улетай, улетай, улетай

я уйду
в долгий путь из птичьих стай
но тебе
быть одной, ты

припев:
   E5      G5      D5      C5
улетай, улетай, улетай, улетай,
не скучай, не скучай, не скучай,
навсегда, навсегда, навсегда, навсегда,
улетай, улетай, улетай

бридж:
A#                   A   F   A   F
   встретимся на небесах
   в белых платьях и в слезах
G#                  G                    F#                       F
  ты протянешь руку мне, я прижму ее к себе, мы растворимся в тишине

[соло на басу]

припев
   E5      G5      D5      C5
улетай, улетай, улетай, улетай,
не скучай, не скучай, не скучай,
навсегда, навсегда, навсегда, навсегда,
улетай, улетай, улетай
улетай
улетай
улетай
улетай


Текст, аккорды и табулатура для песни "Улетай", исполняет "Мэд Дог".
Используемые в песне аккорды можно найти в разделе Как брать аккорды. Аккорды для шестиструнной гитары. Другие песни можно найти на нашем сайте, воспользовавшись алфавитным указателем вверху страницы.


 
Ошибка в тексте? Выделите ошибку и нажмите Ctrl+Enter