# Снял с сингла "На заре"

Куплет:

Гитара 1:
    Gm              Am              Gm              Am
E |---------------------------------------------------------------|
B |---------------------------------------------------------------|
G |---------0-------------3---3-------------0------------3h5-3----|
D |-----------0-----------3-------------------0----------3--------|
A |-----1-------------3-----------------1------------3------------|
E |-3-----3-----3h1-5---5-------5--3-----3-----3h1-5--5-------5-|


Припев:
Гитара 1 [соло]:
    G5                         F5                   A#5
E |-------------------------------------------------------------|
B |-------------------------------------------------------------|
G |-------------------------19----------19----------19----------|
D |-17-17-17-17-17-17-17-17----17-17-17----17-17-17----15-15-15-|
A |-------------------------------------------------------------|
E |-------------------------------------------------------------|
                            F5          G5
E |-------------------------------------------------------------|
B |-------------------------------------------------------------|
G |-------------19----------19----------------------------------|
D |-15-15-15-15----15-15-15----15-15-15-17-17-17-17-17-17-17-17-|
A |-------------------------------------------------------------|
E |-------------------------------------------------------------|
       F5                   A#5
E |-------------------------------------------------------------|
B |-------------------------------------------------------------|
G |-19----------19----------19----------------------19-17-17-17-|
D |----17-17-17----19-19-19----20-20-20-20-20-20-20-------------|
A |-------------------------------------------------------------|
E |-------------------------------------------------------------|
       F5                          C5
E |-------------|                |------------------------------|
B |-------------|                |------------------------------|
G |-19----------|                |------------------------------|
D |----20-20-19-|                |-17~~~~~~~~~~~~~~~------------|
A |-------------|                |------------------------------|
E |-------------| сыграть 2 раза |------------------------------|

Лирика, аккорды:

Gm     Am           Gm     Am
   я ходил долгим днем
   и пришел в странный дом
   дверь искал сотню лет
   ведь ее там и нет

припев:
G5       F5

A#5      F5       G5      F5
мои слезы, моя печаль
мой грезы это тихий рай
мои слезы, моя печаль

A#5      F5       C5



Gm     Am           Gm     Am
   видел я сто зеркал,
   и друзей я в них искал
   но не смог, и теперь
   я один, и меня согреть
   не сможет мамы шаль
   о люди, о люди,
   мне искренне вас жаль!

припев:
G5       F5

A#5      F5       G5      F5
мои слезы, моя печаль
мой грезы это тихий рай
мои слезы, моя печаль
A#5      F5       C5
уплывают в розовую даль

[соло, импровизация]

Gm     Am           Gm     Am
   я устал и не спал
   никому давно не лгал
   что-то знал, что-то ждал
   что-то тихое шептал

G5       F5

A#5      F5       G5      F5
мои слезы, моя печаль
мой грезы это тихий рай
мои слезы, моя печаль
A#5      F5       C5


Текст, аккорды и табулатура для песни "Печаль", исполняет "Мэд Дог".
Используемые в песне аккорды можно найти в разделе Как брать аккорды. Аккорды для шестиструнной гитары. Другие песни можно найти на нашем сайте, воспользовавшись алфавитным указателем вверху страницы.


 
Ошибка в тексте? Выделите ошибку и нажмите Ctrl+Enter