Intro:

1----------------------
2----------------------
3----------------------
4------------5-5-5-5-5-
5|-7-7-7-------2-2-3-3-3-----------
6|-------3-3-3---------------------

1 ---------------------------------|
2 ---------------------------------|
3 ---------------------------------|
4 -9-9-9-5-5-5-0-0-7-7-7-4-4-4-0-0-|
5 ---------------------------------|
6 ---------------------------------|



Piano:
1------3--------7--------|
2------------------------|
3|-4---4-4----4-4-------|-4---4-4----4-4---------|
4|---2------2-----------|---2-----2--------------|
5------------------------|
6------------------------|


Em      C    G     D
Ровный бег моей судьбы
Em      C      G       D    
Ночь печаль и блеск души
Am             D
Луный свет и майский дождь
   Em     C    G     D        
В небесах.
      Em    C     G     D     Em    C   G  D
На заре-е-е-е-е-е-е-е голоса зовут меня
      Em    C     G     D     Em    C   G  D
На заре-е-е-е-е-е-е-е небеса зовут меня

Долгий век моей звезды
Сонный блеск земной росы
Громкий смех и райский мед
В небесах.

На заре голоса зовут меня
На заре небеса зовут меня

Солнца свет и сердца звук
Робкий взгляд и сила рук
Звездный час моей судьбы
В небесах.


Текст, аккорды и табулатура для песни "На заре", исполняет "Мэд Дог".
Используемые в песне аккорды можно найти в разделе Как брать аккорды. Аккорды для шестиструнной гитары. Другие песни можно найти на нашем сайте, воспользовавшись алфавитным указателем вверху страницы.


 
Ошибка в тексте? Выделите ошибку и нажмите Ctrl+Enter