Intro:

3|-4/5-4/5-4/5-5-4/5-5-4/5-4/5-| X2
4|-5-5-5-5-5-5-5-5-5-5-5-5-5-5-|




Проигрыш и куплет:

4----------------------  
5|-3-3-3-3-3-3-3-3-3-3-3-3-3-3-3-3-                                                            
6----------------------  

4----------------------
5----------------------
6|-0-0-0-0-0-0-0-0-0-0-0-0-0-0-0-0-

4----------------------  
5----------------------  
6|-1-1-1-1-1-1-1-1-1-1-1-1-1-1-1-1-                                                          

4----------------------
5----------------------
6|-5-5-5-5-5-5-5-5-5-5-5-5-5-5-5-5-



Я вернусь и наверно улыбнусь потом                           
Город мне не стал чужим                                                
Тонкий  дым сигарета скорость он один                        
Мы похожи чем-то с ним

Припев:
 Dm     Em        Am             Em                                
Я поверю в сотый раз что можно что-то изменить
 Dm     Em        Am             Em
Я попробую опять все так как есть в тебе любить
 Dm     Em        Am             Em
Проиграю но пойму что мне наверно повезло
 Dm     Em        F 
Я узнал твое лицо лицо лицо лицо лицо лицо лицо лицо

Свет машин отразится в беспокойных снах
Кем я стал в твоих глазах
Я не знал чем здесь можно жить и чем дышать
И боюсь мне не узнать

Проигрыш:

6|-5-5-5-5-5-5-5-5-5-5-5-5-5-5-5-5/
13-13-13-13-13-13-13-13-13-13-13-13-13-13-13-13-| x4


1|--8--8--8--8--8--8--8--8--8--8--8--8--8--8--8--       |  
2|-10-10-10-10-10-10-10-10-10-10-10-10-10-10-10--       |
3|--9--9--9--9--9--9--9--9--9--9--9--9--9--9--9--       |   
                                                        |  x4     
1|-10-10-10-10-10-10-10-10-10-10-10-10-10-10-10-10-10-  | 
2|-10-10-10-10-10-10-10-10-10-10-10-10-10-10-10-10-10-  |
3|-10-10-10-10-10-10-10-10-10-10-10-10-10-10-10-10-10-  |


Текст, аккорды и табулатура для песни "Лицо", исполняет "Мэд Дог".
Используемые в песне аккорды можно найти в разделе Как брать аккорды. Аккорды для шестиструнной гитары. Другие песни можно найти на нашем сайте, воспользовавшись алфавитным указателем вверху страницы.


 
Ошибка в тексте? Выделите ошибку и нажмите Ctrl+Enter