1|-------0-1-----------------------------------------------
2|-----3-----3---------3-0-----------0-1-----------1-0-----
3|---2---------2-----0-----0-------2-----2-------0-----0---
4|-0---------------2---------2---2---------2---2---------2-
5------------------0---------------------------
6----0---------------------------0-------------

1|-------0-1-----------------------------------------------
2|-----3-----3---------3-0-----------0-1-----------1-0-----
3|---2---------2-----0-----0-------2-----2-------0-----0---
4|-0---------------2---------2---2---------2---2---------2-
5------------------0---------------------------
6----0---------------------------3-------------



Играется два раза, но во втором рифе в конце играется две части и концовка

1|-1------
2|-1------
3|-2------

Ну вы знаете о чем речь


	
	
	        
Комментарий автора: Если кто-то хочет играть совсем правильно, нужно 6 струну опустить до ноты D и играть ее вместо D на 4 струне Ну и соответственно нота E на 6 струне будет на втором ладу, а G - на пятом

Текст, аккорды и табулатура для песни "Город", исполняет "Мэд Дог".
Используемые в песне аккорды можно найти в разделе Как брать аккорды. Аккорды для шестиструнной гитары. Другие песни можно найти на нашем сайте, воспользовавшись алфавитным указателем вверху страницы.


 
Ошибка в тексте? Выделите ошибку и нажмите Ctrl+Enter