Intro 

1:--0-0--0-0--0-0
2:--0-0--0-0--0-0
3:--0-0--0-0--0-0
4:--2-2--2-2--2-2
5:--2-2--2-2--2-2
6:--0-0--0-0--0-0
============================
Примечание:
   Em    A(5лад)   A#(Изменен)
1:--0------5-------3--------
2:--0------5-------3--------
3:--0------6-------5--------
4:--2------7-------5--------
5:--2------7-------5--------
6:--0------5-------3--------
============================
          Em
Сказала вдруг не приду ,
     Em           A  A#
Ушла у всех на виду , 
          Em
А я не в силах молчать ,  
     Em           A  A#
Сказал что мне наплевать ,
          Em            
И в пелине моих снов ,
     Em           A  A#       
Твоих не слышу шагов ,

Припев:
        Em       A#
Вижу сны , где нет весны ,
        A              Em
Ветер злой , и ночь все ближе лишь о том ,
        A            A#
Как хорошо нам с тобой я снов не вижу .



И.Т.Д.


Текст, аккорды и табулатура для песни "Вижу сны", исполняет "Мечтать".
Используемые в песне аккорды можно найти в разделе Как брать аккорды. Аккорды для шестиструнной гитары. Другие песни можно найти на нашем сайте, воспользовавшись алфавитным указателем вверху страницы.


 
Ошибка в тексте? Выделите ошибку и нажмите Ctrl+Enter