WILD WORLD – Me First and the Gimme Gimmes

By: Kyle ([email protected])

Intro:
e|--------------------------------------------------------------------|
B|-------10-----9--7--9-----------------------------------------------|
G|--9-----x-----x--x--x-----9----6----8-----5-------------------------|
D|--x-----7-----6--4--6-----x----x----x-----x-------------------------|
A|--7-----------------------7----4----6-----3-------------------------|
E|--------------------------------------------------------------------|

Verse:
  PM...................................
e|--------------------------------------------------------------------|
B|--------------------------------------------------------------------|
G|-------11---------9-------------------------------------------------|
D|-11----11----9----9----7------4-----6-------------------------------|
A|-11-----9----9----7----7------4-----6-------------------------------|
E|--9----------7---------5------2-----4-------------------------------|
                                     (Release PM on every second strum)
  PM............................
e|--------------------------------------------------------------------|
B|--------------------------------------------------------------------|
G|-------11---------9-------------------------------------------------|
D|-11----11----9----9----7-----4-----6--6--9--------------------------|
A|-11-----9----9----7----7-----4-----6--6--9--------------------------|
E|--9----------7---------5-----2-----4--4--7--------------------------|
  (Release PM on first strum of PM chords)
 
Chorus:
e|-------------------------------------------------------------------------|
B|-------------------------------------------------------------------------|
G|->------->------->--------9----------9-8-7--------------------9----------|
D|-7-7-7-7-6-6-6-6-4-4-4-4--9---9---7--------9-7-6-----xx-9--7--9----------|
A|--------------------------7---9---7--------------9-7-xx-9--7--7------7-7-|
E|------------------------------7---5------------------xx-7--5----7-7-9---9|

e|-------------------------------------------------------------------------|
B|-------------------------------------------------------------------------|
G|---9----------9-8-7--------------------9----11----13---------------------|
D|---9---9---7--------9-7-6-----xx-9--7--9----11----13---------------------|
A|---7---9---7--------------9-7-xx-9--7--7-----9----11---------------------|
E|-------7---5------------------xx-7--5------------------------------------|

Bridge:
e|--------------------------------------------------------------------|
B|--------------------------------------------------------------------|
G|--6----14--13--11----13----9----6----8----17---------18-------------|
D|--x-----x---x---x-----x----x----x----x-----x----------x-------------|
A|--4----12--11---9----11----7----4----6----15---------16-------------|
E|--------------------------------------------------------------------|
 
Go back and play second part of verse, then chorus.

End with
e|--------|
B|--------|
G|---11---|
D|---11---|
A|----9---|
E|--------|


Текст, аккорды и табулатура для песни "Wild World", исполняет "Me First And The Gimme Gimmes".
Используемые в песне аккорды можно найти в разделе Как брать аккорды. Аккорды для шестиструнной гитары. Другие песни можно найти на нашем сайте, воспользовавшись алфавитным указателем вверху страницы.


 
Ошибка в тексте? Выделите ошибку и нажмите Ctrl+Enter