Wild World 
Me First and the Gimme Gimmes


intro

gtr1:

e:-------------------------------------------------------
B:-------------------------------------------------------
G:-6-6-6-6-14-14-14-14-13-13-11-11-13-13-13-13-----------
D:-------------------------------------------------------
A:-4-4-4-4-12-12-12-12-11-11-9--9--11-11-11-11-----------
E:-------------------------------------------------------

e:-------------------------------------------------------
B:-------------------------------------------------------
G:-9-9-9-9-6-6-6-6-8-8-8-8-5-5-5-5-6---------------------
D:------------------------------------Hold---------------
A:-7-7-7-7-4-4-4-4-6-6-6-6-3-3-3-3-4---------------------
E:-------------------------------------------------------

gtr2:

e:-------------------------------------------------------
B:-------------------------------------------------------
G:-6-6-6-6-----------------------------------------------
D:-6-6-6-6-7-7-7-7-9-9-9-9-6-6-6-6-7-7-7-7-4-4-4-4-------
A:-4-4-4-4-7-7-7-7-9-9-9-9-6-6-6-6-7-7-7-7-4-4-4-4-------
E:---------5-5-5-5-7-7-7-7-4-4-4-4-5-5-5-5-2-2-2-2-------

e:----------------------
B:----------------------
G:----------------------
D:-6-6-6-6-6-6-6-6------
A:-6-6-6-6-6-6-6-6------
E:-4-4-4-4-4-4-4-4------


verse:

e:-------------------------------------------------------
B:-------------------------------------------------------
G:-6-6-6-6-----------------------------------------------
D:-6-6-6-6-7-7-7-7-9-9-9-9-6-6-6-6-7-7-7-7-4-4-4-4-------
A:-4-4-4-4-7-7-7-7-9-9-9-9-6-6-6-6-7-7-7-7-4-4-4-4-------
E:---------5-5-5-5-7-7-7-7-4-4-4-4-5-5-5-5-2-2-2-2-------

e:----------------------
B:----------------------
G:----------------------   
D:-6-6-6-6-6-6-6-6------    X2 palm muted, listen to the song to 
A:-6-6-6-6-6-6-6-6------ 		   figure out the pattern
E:-4-4-4-4-4-4-4-4------


little thing before chorus:

e:-------------------------------------------------------
B:-------------------------------------------------------
G:--11-11-11-11--10-10-10-10-8-8-8-8-6-6-6-6-------------
D:-------------------------------------------------------
A:--9--9--9--9---8--8--8--8--6-6-6-6-4-4-4-4-------------
E:-------------------------------------------------------



chorus:

gtr1:

e:--------------------------3-2-0---------------------------
B:--------------------------------3-2-0---------------------
G:---------4-4-4-4-2-2-2-2--------------2-0-----------------
D:-2-2-2-2-4-4-4-4-2-2-2-2----------------------------------
A:-2-2-2-2-2-2-2-2-0-0-0-0----------------------------------
E:-0-0-0-0--------------------------------------------------
								X2
e:-------------------------------------------------------
B:-------------------------------------------------------
G:-4-4-4-4-2-2-2-2---------------------------------------
D:-4-4-4-4-2-2-2-2-2-2-2-2-------------------------------
A:-2-2-2-2-0-0-0-0-2-2-2-2--------5-5--------------------
E:-----------------0-0-0-0---/5-7-----7------------------

gtr2:

e:-----------------------------------------------------
B:-----------------------------------------------------
G:-9-9-9-9-4-4-4-4-2-2-2-2-----------------------------
D:-9-9-9-9-4-4-4-4-2-2-2-2-----------------------------
A:-7-7-7-7-2-2-2-2-0-0-0-0-----------------------------
E:-----------------------------------------------------
								X2
e:-------------------------------------------------------
B:-------------------------------------------------------
G:-9-9-9-9-2-2-2-2---------------------------------------
D:-9-9-9-9-2-2-2-2-2-2-2-2-------------------------------
A:-7-7-7-7-0-0-0-0-2-2-2-2-------------------------------
E:-----------------0-0-0-0-------------------------------



Bridge:

e:-------------------------------------------------------
B:-------------------------------------------------------
G:-6-----14--13--11----13-----9-----6-----8-----17-------
D:-------------------------------------------------------
A:-4-----12--11--9-----11-----7-----4-----6-----15-------
E:-------------------------------------------------------


Текст, аккорды и табулатура для песни "Wild World", исполняет "Me First And The Gimme Gimmes".
Используемые в песне аккорды можно найти в разделе Как брать аккорды. Аккорды для шестиструнной гитары. Другие песни можно найти на нашем сайте, воспользовавшись алфавитным указателем вверху страницы.


 
Ошибка в тексте? Выделите ошибку и нажмите Ctrl+Enter