UPTOWN GIRL - Me first and the Gimme Gimmes 
 
By: Geoff Hansen 
 
p=palm mute 
e-|---------verse-x4----------------|-----------------chorus-x2-------------| 
B-|---------------------------------|---------------------------------------| 
G-|---------------------------------|---------------------------------------| 
D-|-2-2-2--4-4-4--6-6-6--7--9-------|-------------------4-4-4-4-------------| 
A-|-2-2-2--4-4-4--6-6-6--7--9-------|-7-7-7-7--4-4-4-4--2-2-2-2--2-2-2-2----| 
E-|-0-0-0--2-2-2--4-4-4--5--7-------|-5-5-5-5--2-2-2-2-----------0-0-0-0----| 
 
e-|-----------------------end chorus--x1----------------------| 
B-|-----------------------------------------------------------| 
G-|-----------------------------------------------------------| 
D-|-------------------4-4-4-4--4-4-4-4-4-4-4-4----------------| 
A-|-7-7-7-7--4-4-4-4--2-2-2-2--2-2-2-2-2-2-2-2----------------| 
E-|-5-5-5-5--2-2-2-2----p-p-p---------------------------------| 
      p p p    p p p                                                           
e-|-----------------Bridge-x2--------------------------| 
B-|----------------------------------------------------| 
G-|----------------------------------------------------| 
D-|-5-5-5-5--7-7-7-7--8-8-8-8--9-9-9-9--7--------------| 
A-|-5-5-5-5--7-7-7-7--8-8-8-8--9-9-9-9--7--------------| 
E-|-3-3-3-3--5-5-5-5--6-6-6-6--7-7-7-7--5--------------| 
 
Then play 
verse x2 
chorus x2 
end chorus x1 
verse x2 (only strum each chord once) 
Bridge x2 
verse x4 
 
if anybody wants to send any feed back or any shit mail me at  
[email protected]


Текст, аккорды и табулатура для песни "Uptown Girl", исполняет "Me First And The Gimme Gimmes".
Используемые в песне аккорды можно найти в разделе Как брать аккорды. Аккорды для шестиструнной гитары. Другие песни можно найти на нашем сайте, воспользовавшись алфавитным указателем вверху страницы.


 
Ошибка в тексте? Выделите ошибку и нажмите Ctrl+Enter