Artist: Me First and the Gimme Gimmes
Song: Raining on prom night
Tabbed by Daniel McDougall
E-mail: [email protected]
 
All of the chords in the intro are bar chords

   Key:
   > = keep strumming (listen to the music)   


Intro:

e|--1--1--|--1--3--5--5--|--1--3--3--3--|--1--3--5--5--|--1--2--3--|
b|--1--1--|--1--3--5--7--|--1--3--5--5--|--1--3--5--7--|--1--2--3--|
g|--2--2--|--2--4--5--7--|--2--4--5--3--|--2--4--5--7--|--2--2--4--| Pause.
d|--3--3--|--3--5--7--7--|--3--5--5--5--|--3--5--7--7--|--3--4--5--|
a|--3--3--|--3--5--7--5--|--3--5--3--3--|--3--5--7--5--|--3--4--5--|
E|--1--1--|--1--3--5--5--|--1--3--3--3--|--1--3--5--5--|--1--2--3--|


e|------|-----------------|
b|------|-----------------|
g|--5---|-5---2-----------|   x4
d|--5->-|-5->-2->-3---5---|
a|--3---|-3---0---3->-5->-|
E|------|---------1---3---|


e|--------------------------|
b|--------------------------|
g|--5--------3-----2--7-----|
d|--5--3--2--3--3--2--7--5--|
a|--3--3--2--1--3--0--5--5--|
E|-----1--0-----1--------3--|


e|----------------------------------|
b|----------------------------------|
g|--5---5---------------------------|
d|--5--5-->-7---7---3---3---5---5---|
a|--3-3-----7--7-->-3--3-->-5--5-->-|
E|----------5-5-----1-1-----3-3-----|


e|-----------------|-----------------------------------|
b|-----------------|-----------------------------------|
g|--5---5----------|-----------------------------------|
d|--5--5----6---6--|--6---6---8---8---4---4----6---6---|
a|--3-3-----6--6---|--6--6-->-8--8-->-4--4-->--6--6-->-|
E|----------4-4----|--4-4-----6-6-----2-2------4-4-----|


e|------------------|
b|------------------|
g|--6---------------|
d|--6->-8---4---6---|
a|--4---8->-4->-6->-|
E|------6---2---4---|


Текст, аккорды и табулатура для песни "Raining On Prom Night", исполняет "Me First And The Gimme Gimmes".
Используемые в песне аккорды можно найти в разделе Как брать аккорды. Аккорды для шестиструнной гитары. Другие песни можно найти на нашем сайте, воспользовавшись алфавитным указателем вверху страницы.


 
Ошибка в тексте? Выделите ошибку и нажмите Ctrl+Enter